PrimaNota.ru - самый крупный в мире бесплатный архив песенных текстов, аккордов, табулатур и нот


Misc Computer Games - Earthbound - Enjoy Your Stay - бас-таба

Регистрация Запомнить меня
Войти через:  Facebook Google Twitter Vk Yandex Mail.ru

Misc Computer Games - Earthbound - Enjoy Your Stay - бас-таба

Печатать
Просмотров: 100
Earthbound - Enjoy Your Stay

Tabbed by: Ashy (XxThreeCheersxX)
E-mail: burdickash@gmail.com

Tuning: Standard

G|----------------------------------1--1---------1--1----|
D|--------5-5-----------5-5----3------------3------------|
A|-3----6--------3----6------------------3------------3--|
E|------------3-------------3----------------------------|

G|--------------------------------4--4----0-0-0----------|
D|------0--0-3-------0--0-3--5---------0-----------------|
A|-1------------1----------------------------------------|
E|-------------------------------------------------------|

Happy playing!

| /  slide up
| \  slide down
| h  hammer-on
| p  pull-off
| ~  vibrato
| +  harmonic
| x  Mute note
===============================================================================
Добавлено: 21.08.2015
Другие материалы по этой песне:

Страница создана 26.09.2013
http://primanota.ru/misc-computer-games/earthbound-enjoy-your-stay-chords.htm
Привет, Гость.
Предлагаем пройти революционный курс по гитаре.
Подарок от PrimaNota.Ru, забирай!