PrimaNota.ru - самый крупный в мире бесплатный архив песенных текстов, аккордов, табулатур и нот


Misc Computer Games - Final Fantasy 7 - Prelude - таба, видео

Регистрация Запомнить меня
Войти через:  Facebook Google Twitter Vk Yandex Mail.ru

Misc Computer Games - Final Fantasy 7 - Prelude - таба, видео

Печатать
Просмотров: 121
-------------------------------------------------------------------------------
                             Final Fantasy Prelude
-------------------------------------------------------------------------------
Tabbed by: pelusteriano
E-mail: 

Tuning:EADGBE
tempo 80
clean guitar
PART 1
e|---------------------3-5-8-13-15-17-20-25-20-17-15-13-8-5-3-1---------------|
B|----------------8-13------------------------------------------8-5-----------|
G|----------5-7-9---------------------------------------------------7-5-------|
D|--------5-------------------------------------------------------------5-----|
A|----5-7-----------------------------------------------------------------7-5-|
E|--8-------------------------------------------------------------------------|
PART 2
e|---------------------0-1-5-10-12-13-17-22-17-13-12-10-5-1-0-------------------|
B|------------------10----------------------------------------10----------------|
G|----------------9----------------------------------------------9--------------|
D|---------7-9-10--------------------------------------------------10-9-7-------|
A|-------7----------------------------------------------------------------7-----|
E|-5-7-8--------------------------------------------------------------------8-7-|
PART 3
e|-----------------1-3-5-8-13-15-17-20-25-20-17-15-13-8-5-3-1-----------------|
B|-----------3-5-8--------------------------------------------8-5-------------|
G|-------0-5------------------------------------------------------7-5---------|
D|---0----------------------------------------------------------------5-2-0---|
A|-----7----------------------------------------------------------------------|
E|-8--------------------------------------------------------------------------|
PART 4
e|--------------------0-1-5-10-12-13-17-22-17-13-12-10-5-1-0-------------------|
B|-----------0-1-5-10----------------------------------------10----------------|
G|---------2----------------------------------------------------9--------------|
D|-------2--------------------------------------------------------10-9-7-------|
A|-0-2-3-----------------------------------------------------------------7-----|
E|-------------------------------------------------------------------------8-7-|
PART 5
e|--------------------6-8-10-13-18-20-22-20-18-13-10-8-6-1--------------------|
B|-----------1-6-8-13--------------------------------------10-8---------------|
G|-------0-2----------------------------------------------------10------0-----|
D|-----3-----------------------------------------------------------10-7---3---|
A|-0-3----------------------------------------------------------------------3-|
E|----------------------------------------------------------------------------|
PART 6
e|------------------0-3-8-10-12-15-20-22-24-22-20-15-12-10-8-3-0----------------|
B|---------0-3-8-10----------------------------------------------10-8---0-------|
G|-----0-2------------------------------------------------------------7-----0---|
D|---0--------------------------------------------------------------------7---0-|
A|-2----------------------------------------------------------------------------|
E|------------------------------------------------------------------------------|
PART 7
e|-------------------------8-9-13-16-20-21-20-16-13-9-8-4-1-------------------|
B|-----------1-4-8-9-13-16----------------------------------9-8---------------|
G|-------0-1----------------------------------------------------8-5-----------|
D|-----1------------------------------------------------------------6-5-------|
A|---3------------------------------------------------------------------6-3---|
E|-4--------------------------------------------------------------------------|
PART 8
e|---------------------------10-11-15-18-22-23-22-18-15-11-10-6-3--------------------|
B|-----------3-6-10-11-15-18--------------------------------------11-10--------------|
G|-------2-3------------------------------------------------------------10-7---------|
D|---0-3---------------------------------------------------------------------8-7---0-|
A|-1-----------------------------------------------------------------------------8---|
E|-----------------------------------------------------------------------------------|
PLAY THESE LEADS OVER PARTS
PART 3 LEAD   PART 4 LEAD PART 3 LEAD PART 4 LEAD PART 5 LEAD PART 6 LEAD   PART 7 LEAD
e|-24--22-25-]----24-----]-24--22-25-]-25-27-24--]-20-19-20--]-22-24-25 22-]-22-20-18-16-|
B|-----------]-----------]-----------]-----------]-----------]-------------]-------------|
G|-----------]-----------]-----------]-----------]-----------]-------------]-------------|
D|-----------]-----------]-----------]-----------]-----------]-------------]-------------|
A|-----------]-----------]-----------]-----------]-----------]-------------]-------------|
E|-----------]-----------]-----------]-----------]-----------]-------------]-------------|
PART 8 LEAD    PART 3      PART 4     PART 3      PART 4     PART 5 PART 6 PART 7 PART 8 PART 3
e|-23-22-20-18-]-24-22-25-]-----24---]-24--22-25-]-25-27-24-]--25--]--27--]--25--]--27--]--24--|
B|-------------]----------]----------]-----------]----------]------]------]------]------]------|
G|-------------]----------]----------]-----------]----------]------]------]------]------]------|
D|-------------]----------]----------]-----------]----------]------]------]------]------]------|
A|-------------]----------]----------]-----------]----------]------]------]------]------]------|
E|-------------]----------]----------]-----------]----------]------]------]------]------]------|
ENDING 
e|-------------------1-3-6-9-13-15-18-------------------1-3-6-8-13-15-20--|
B|-----------1-3-6-9----------------------------1-3-6-8-------------------|
G|---------1----------------------------------0---------------------------|
D|-----0-3----------------------------------3-----------------------------|
A|---3----------------------------------3-5-------------------------------|
E|-4----------------------------------3-----------------------------------|

************************************

| /   slide up
| \   slide down
| h   hammer-on
| p   pull-off
| ~   vibrato
| +   harmonic
| x   Mute note
| b   Bend
| pb  Pre-bend
| br  Bend release
| pbr Pre-bend release
| brb Bend release bend

************************************
Добавлено: 21.08.2015
Другие материалы по этой песне:

Страница создана 06.07.2013
http://primanota.ru/misc-computer-games/final-fantasy-7-prelude-chords.htm
Привет, Гость.
Предлагаем пройти революционный курс по гитаре.
Подарок от PrimaNota.Ru, забирай!