PrimaNota.ru - самый крупный в мире бесплатный архив песенных текстов, аккордов, табулатур и нот


Misc Computer Games - Megaman - Elecman - таба, бас-таба, видео

Регистрация Запомнить меня
Войти через:  Facebook Google Twitter Vk Yandex Mail.ru

Misc Computer Games - Megaman - Elecman - таба, бас-таба, видео

Печатать
Просмотров: 120
Gtr I (E A D G B E) 
Gtr II (E A D G B E) 

drums for one measure

  Q=150
  Gtr I
          |-3-|
  Q  H    E E E   Q  Q  +E   Q   +E
|---------------|--------------------|
|---------------|--------------------|
|---------------|----8--(8)----------|
|---------------|-----------11--(11)-|
|---------------|--------------------|
|---------2-4-6-|-7------------------|
|
| Gtr II
|         |-3-|
| Q  H    E E E   Q  Q  +E   Q   +E
|---------------|--------------------|
|---------------|--------------------|
|---------------|--------------------|
|---------------|----9--(9)--9---(9)-|
|---------------|-6------------------|
|---------2-1-0-|--------------------|


  Q  +E  H            +E       Q   Q  +E   Q   +E
|---------------------------|-----------------------|
|---------------------------|-----------------------|
|-9--(9)-8------------(8)---|------8--(8)-----------|
|---------------------------|-------------11--(11)--|
|---------------------------|-----------------------|
|---------------------------|-----------------------|
|
| Q  +E  Q  +E   S  S  S  S    E E Q  +E   Q   +E
|---------------11----------|-----------------------|
|------------------12-------|-10--------------------|
|---------------------11--9-|-----------------------|
|-9--(9)-9--(9)-------------|------9--(9)--9---(9)--|
|---------------------------|-----------------------|
|---------------------------|-----------------------|


  Q  +E  H            +E      Q    Q   +E   Q   +E
|---------------------------|-----------------------|
|---------------------------|-----------------------|
|-9--(9)-8------------(8)---|------8---(8)----------|
|---------------------------|--------------11--(11)-|
|---------------------------|-----------------------|
|---------------------------|-----------------------|
|
| Q  +E  Q  +E   S  S  S  S   E E  Q   +E   Q   +E
|---------------11----------|-----------------------|
|------------------12-------|-9---------------------|
|---------------------11--9-|-----------------------|
|-9--(9)-9--(9)-------------|-----------------------|
|---------------------------|-----11--(11)-11--(11)-|
|---------------------------|-----------------------|


   Q   +E   Q   +E   Q     W
|-----------------------|-------|
|-----------------------|-------|
|--9---(9)--8---(8)-----|-------|
|-------------------11--|--9----|
|-----------------------|-------|
|-----------------------|-------|
|
|  Q   +E   Q   +E   Q     W
|-----------------------|-------|
|-----------------------|-------|
|-----------------------|-------|
|-----------------------|-------|
|-11--(11)-11--(11)-11--|-11----|
|-----------------------|-------|


  Q  +E  Q   E E  E   Q  Q  +E   Q   +E
|-------------------|--------------------|
|-------------------|--------------------|
|----------------11-|----8--(8)----------|
|-9--(9)-8----------|-----------11--(11)-|
|-----------11-9----|--------------------|
|-------------------|--------------------|
|
| Q  +E  Q   E E  E   Q  Q  +E   Q   +E
|----------------14-|--------------------|
|-------------------|--------------------|
|-------------------|--------------------|
|-------------------|----9--(9)--9---(9)-|
|-9--(9)-9--11-9----|--------------------|
|-------------------|--------------------|


  Q  +E  H            +E       Q   Q  +E   Q   +E
|---------------------------|----------------------|
|---------------------------|----------------------|
|-9--(9)-8------------(8)---|------8--(8)----------|
|---------------------------|-------------11--(11)-|
|---------------------------|----------------------|
|---------------------------|----------------------|
|
| Q  +E  Q  +E   S  S  S  S    E E Q  +E   Q   +E
|---------------11----------|----------------------|
|------------------12-------|-10-------------------|
|---------------------11--9-|----------------------|
|-9--(9)-9--(9)-------------|------9--(9)--9---(9)-|
|---------------------------|----------------------|
|---------------------------|----------------------|


  Q  +E  H            +E      Q    Q   +E   Q   +E
|---------------------------|-----------------------|
|---------------------------|-----------------------|
|-9--(9)-8------------(8)---|------8---(8)----------|
|---------------------------|--------------11--(11)-|
|---------------------------|-----------------------|
|---------------------------|-----------------------|
|
| Q  +E  Q  +E   S  S  S  S   E E  Q   +E   Q   +E
|---------------11----------|-----------------------|
|------------------12-------|-9---------------------|
|---------------------11--9-|-----------------------|
|-9--(9)-9--(9)-------------|-----------------------|
|---------------------------|-----11--(11)-11--(11)-|
|---------------------------|-----------------------|


   Q   +E   Q   +E   Q     W
|-----------------------|-------|
|-----------------------|-------|
|--9---(9)--8---(8)-----|-------|
|-------------------11--|--9----|
|-----------------------|-------|
|-----------------------|-------|
|
|  Q   +E   Q   +E   Q     W
|-----------------------|-------|
|-----------------------|-------|
|-----------------------|-------|
|-----------------------|-------|
|-11--(11)-11--(11)-11--|-11----|
|-----------------------|-------|


   +E  E  E E H       E  E  E  E  E  E  E  E
|------------------|-------------------------|
|------------------|-12-12-12-12-12-12-12-12-|
|--------11--------|-------------------------|
|--(9)-8-----------|-------------------------|
|------------------|-------------------------|
|------------------|-------------------------|
|
|  +E  E  E E H       E  E  E  E  E  E  E  E
|--------14--------|-------------------------|
|------------------|-------------------------|
|------------------|-11-11-11-11-11-11-11-11-|
|------------------|-------------------------|
|-(11)-9-----------|-------------------------|
|------------------|-------------------------|


   E  E  E  E  E  E  E  E    E  E  E  E  E  E  E  E
|-------------------------|-------------------------|
|-10-10-10-10-10-10-10-10-|-12-12-12-12-12-12-12-12-|
|-------------------------|-------------------------|
|-------------------------|-------------------------|
|-------------------------|-------------------------|
|-------------------------|-------------------------|
|
|  E  E  E  E  E  E  E  E    E  E  E  E  E  E  E  E
|-------------------------|-------------------------|
|-------------------------|-------------------------|
|--9--9--9--9--9--9--9--9-|-11-11-11-11-11-11-11-11-|
|-------------------------|-------------------------|
|-------------------------|-------------------------|
|-------------------------|-------------------------|


   E  E  E  E  E  E  E  E    E  E  E  E  E  E  E  E
|-------------------------|-10-10-10-10-10-10-10-10-|
|-14-14-14-14-14-14-14-14-|-------------------------|
|-------------------------|-------------------------|
|-------------------------|-------------------------|
|-------------------------|-------------------------|
|-------------------------|-------------------------|
|
|  E  E  E  E  E  E  E  E    E  E  E  E  E  E  E  E
|-------------------------|-------------------------|
|-10-10-10-10-10-10-10-10-|-10-10-10-10-10-10-10-10-|
|-------------------------|-------------------------|
|-------------------------|-------------------------|
|-------------------------|-------------------------|
|-------------------------|-------------------------|


   E  E  E  E  E  E  E  E    E  E  E  E  E  E  E  E
|-------------------------|-------------------------|
|-13-13-13-13-13-13-13-13-|-11-11-11-11-11-11-11-11-|
|-------------------------|-------------------------|
|-------------------------|-------------------------|
|-------------------------|-------------------------|
|-------------------------|-------------------------|
|
|  E  E  E  E  E  E  E  E    E  E  E  E  E  E  E  E
|-------------------------|-------------------------|
|-------------------------|-------------------------|
|-12-12-12-12-12-12-12-12-|-10-10-10-10-10-10-10-10-|
|-------------------------|-------------------------|
|-------------------------|-------------------------|
|-------------------------|-------------------------|


   S  S  S E  E  S  S S E Q
|-14-14-14---14-14-14----------|
|------------------------------|
|------------------------------|
|------------------------------|
|------------------------------|
|------------------------------|
|
|  S  S  S E  E  S  S S E Q
|------------------------------|
|-12-12-12---12-12-12----------|
|------------------------------|
|------------------------------|
|------------------------------|
|------------------------------|



Добавлено: 31.05.2015
Другие материалы по этой песне:

Страница создана 19.08.2013
http://primanota.ru/misc-computer-games/megaman-elecman-chords.htm
Привет, Гость.
Предлагаем пройти революционный курс по гитаре.
Подарок от PrimaNota.Ru, забирай!