PrimaNota.ru - самый крупный в мире бесплатный архив песенных текстов, аккордов, табулатур и нот


Misc Computer Games - Castlevania 3 - Riddle - таба, бас-таба, видео

Регистрация Запомнить меня
Войти через:  Facebook Google Twitter Vk Yandex Mail.ru

Misc Computer Games - Castlevania 3 - Riddle - таба, бас-таба, видео

Печатать
Просмотров: 50
Уроки эстрадного вокала в Санкт-Петербурге
Gtr I (E A D G B E) - 'Sawtooth'
Gtr II (E A D G B E) - 'Squarewave/Impossible Arpeggios'

Temp: 120

   Gtr I
e|----------------------------------|----------------------------------|
B|----------------------------------|----------------------------------|
G|--8---5-7-8---5-7-8---5-7-8---5-8-|--7---3-5-7---3-5-7---3-5-7---3-7-|
D|----5-------5-------5-------5-----|----3-------3-------3-------3-----|
A|----------------------------------|----------------------------------|
E|----------------------------------|----------------------------------|
|
 | Gtr II
e|----------------------------------|----------------------------------|
B|----------------------------------|----------------------------------|
G|----------------------------------|----------------------------------|
D|-10-------------------------------|-10-------------------------------|
A|----------------------------------|----------------------------------|
E|----------------------------------|----------------------------------|


 Temp: 80
e|--------------------------------------|-------------------------|
B|--------------------------------------|-------------------------|
G|--------------------------------------|--7----------------------|
D|-10---6-8-10---6-8-10---6-8-10---6-10-|-----8-------------------|
A|----6--------6--------6--------6------|-------8-6-5-------------|
E|--------------------------------------|-------------------------|
|
e|--------------------------------------|-------------------------|
B|--------------------------------------|-------------------------|
G|--------------------------------------|-------------------------|
D|-10-----------------------------------|-10------------(10)------|
A|--------------------------------------|-------------------------|
E|--------------------------------------|-------------------------|


 Temp: 140
e|-----------------------------------------------------------8----(8)----7-----8-------|
B|o------------------------------8----7-----8------------------------------------------|
G|--8----7-----8-----------------------------------------------------------------------|
D|-------------------------------------------------------------------------------------|
A|o------------------------------------------------------------------------------------|
E|-------------------------------------------------------------------------------------|
|
|    |-------3--------|  |-------3--------|  |---------3---------|  |--------3--------|
e|------------------------------20-23---27-29b32-27-23-20------------------------------|
B|o-----------------------16-20---------------------------20---16----------------------|
G|---------------------17-----------------------------------------17-------------------|
D|------------10-13-17------------------------------------------------17---13-10-------|
A|o--------10--------------------------------------------------------------------10----|
E|--8-11----------------------------------------------------------------------------11-|

e|-11----10----11-----------------------------------------------------------------------|
B|--------------------------------------------------------------------------16----------|
G|-----------------------------------------------------------------17-------------------|
D|-----------------------------------------------------15-17----------------------------|
A|--------------------------------------------------------------------------------------|
E|--------------------------------------------------------------------------------------|
|
|  |--------3---------|  |------3-------|  |---------3----------|  |------3-------|
e--------------------------------20-23-27-29b32-27-23----20----------------------------|
B--------------------------16-20----------------------------20-16----------------------|
G-----------------------17----------------------------------------17-------------------|
D-------------10--13-17----------------------------------------------17-13-10----------|
A----------10-----------------------------------------------------------------10-------|
E--8-11--------------------------------------------------------------------------11----|

                           ~~~~
e|-15--------------14----(14)----------------(14)----------------22--------------------|
B|-------------------------------------------------------------------------------19----|
G|-------------------------------------------------------------------------------------|
D|-------------------------------------------------------------------------------------|
A|-------------------------------------------------------------------------------------|
E|-------------------------------------------------------------------------------------|
|
|   |--------3---------|   |-------3-------|   |-------3-------|  |--------3---------|
e|----------------------------------17-19-22--26--22-19-17-----------------------------|
B|-------------------------------19------------------------19--------------------------|
G|------------------------17--19------------------------------19-17--------------------|
D|-----------12-16----19---------------------------------------------19-16-12----------|
A|-----12-15------------------------------------------------------------------12----15-|
E-|14----------------------------------------------------------------------------------|

     ~~~~~~~~~~~~~~~~~~~~~~
e|--------------------------------------------------------------------------------|
B|-(19)----------------(19)-------------------------------------------------------|
G|--------------------------------------------------------------------------------|
D|--------------------------------------------------------------------------------|
A|--------------------------------------------------------------------------------|
E|--------------------------------------------------------------------------------|
|
|    |-------3-------|   |-------3-------|  |------3-------|  |------3-------|
e|--------------------------------17-19-22-26-22-19-17----------------------------|
B|-----------------------------19----------------------19-------------------------|
G|----------------------17--19----------------------------19-17-------------------|
D|------------12-16-19------------------------------------------19-16-12----------|
A|------12-15------------------------------------------------------------12-15----|
E|--14----------------------------------------------------------------------------|

e|------------------------------------------------------------------------------------|
B|---------------------------------------------------------15----(15)----14---15------|
G|-----------------------------16----15----16-----------------------------------------|
D|-15----14---15----------------------------------------------------------------------|
A|------------------------------------------------------------------------------------|
E|------------------------------------------------------------------------------------|
|
|   |-------3-------|  |--------3--------|  |--------3---------|   |-------3--------|
e|--------------------------------------15-19--15-------------------------------------|
B|-----------------------------15-18--------------18-15-------------------------------|
G|--------------------10-12-16--------------------------16----12--10------------------|
D|---------------9-12-------------------------------------------------12----9---------|
A|----------8-10--------------------------------------------------------------10-8----|
E|--7-10---------------------------------------------------------------------------10-|

e|-13----12----13--------------------------------------------------------16----15-----------|
B|-----------------------------------------------------------15----18----------------18-----|
G|-----------------------------------------16----13----16-----------------------------------|
D|------------------------------------------------------------------------------------------|
A|------------------------------------------------------------------------------------------|
E|------------------------------------------------------------------------------------------|
|
|     |--------3---------|  |------3-------|  |---------3----------|  |---------3----------|
e|--------------------------------19-22-25-27-25----22-19-----------------------------------|
B|--------------------------18-20-------------------------20----18--------------------------|
G|--------------------16-19----------------------------------------19-16--------------------|
D|-------------15--17-------------------------------------------------------17-15-----------|
A|----14----17--------------------------------------------------------------------17----14--|
E|-15---------------------------------------------------------------------------------------|

e|----------------------------------------------------------------|
B|-16----------------------------(16)----------------18-----------|
G|----------------------------------------------------------------|
D|----------------------------------------------------------------|
A|----------------------------------------------------------------|
E|----------------------------------------------------------------|
|
|   |----3----| |------3-------|   |-------3-------|  |----3----|
e|----------------------------20--23--20--------------------------|
B|----------------------16-20------------20-16--------------------|
G|------------5-8-12-17------------------------17-12--8-5---------|
D|----------5---------------------------------------------5-------|
A|------3-6-------------------------------------------------6-3---|
E|-11-3---------------------------------------------------------3-|

e|---------------------------------------------------------------------------|
B|-19--------------------------20-------(20)---------------------------------|
G|---------------------------------------------------------------------------|
D|---------------------------------------------------------------------------|
A|---------------------------------------------------------------------------|
E|---------------------------------------------------------------------------|
|
|   |-------3-------|  |------3-------|   |------3------|  |------3-------|
e|-----------------------------17-20-22-------------------------------13-15--|
B|--------------------------19----------------------------------12-15--------|
G|--------------------17-19-------------------------------10-12--------------|
D|--------------16-19--------------------------------9-12--------------------|
A|--------15-17---------------------------------8-10-------------------------|
E|-14--17---------------------------------7--10------------------------------|

e|----------------15--13-(13)----|-------------13-(13)-----------|
B|-----13-(13)-16-------------16-|-15--16-(16)-------------13-15-|
G|-13----------------------------|---------------------15--------|
D|-------------------------------|-------------------------------|
A|-------------------------------|-------------------------------|
E|-------------------------------|-------------------------------|
|
e|----------------10-------------|-------------------------------|
B|-------------11-----13-(13)-11-|-10--11-(11)-13-(13)--------10-|
G|-----12-(12)-------------------|---------------------10--12----|
D|-13----------------------------|-------------------------------|
A|-------------------------------|-------------------------------|
E|-------------------------------|-------------------------------|

e|----------------15--13-(13)----|-----------------15-----|
B|-----13-(13)-16-------------16-|-15--15-17-18-19--------|
G|-13----------------------------|------------------------|
D|-------------------------------|------------------------|
A|-------------------------------|------------------------|
E|-------------------------------|------------------------|
|
e|----------------10-------------|-----------------10-----|
B|-------------11-----13-(13)-11-|-10--10-11-12-13--------|
G|-----12-(12)-------------------|------------------------|
D|-13----------------------------|------------------------|
A|-------------------------------|------------------------|
E|-------------------------------|------------------------|

e|----------------------------------------------15-|
B|-16-15-13-16-15-13----15-13----------15-16-18----|
G|-------------------16-------16----16-------------|
D|-------------------------------17----------------|
A|-------------------------------------------------|
E|-------------------------------------------------|
|
e|-15-------15----------------------------15-16-18-|
B|----18-16----18-16-15-18-16-15----15-17----------|
G|-------------------------------17----------------|
D|-------------------------------------------------|
A|-------------------------------------------------|
E|-------------------------------------------------|

e|-16-15----16-15-------15----------------17-19-20-|
B|-------18-------18-17----18-17----17-19----------|
G|-------------------------------17----------------|
D|-------------------------------------------------|
A|-------------------------------------------------|
E|-------------------------------------------------|
|
e|-20-18----20-18-------18-------------17-20-22-23-|
B|-------21-------21-20----21-20-18-20-------------|
G|-------------------------------------------------|
D|-------------------------------------------------|
A|-------------------------------------------------|
E|-------------------------------------------------|


   |--------3---------|     |--------3---------|   |--------3---------|    |-3--|
e|-27--------------27--------------27--------------27--------------27-----------------|
B|-20-27----25-----20-27----25-----20-27----25-----20-27----25-----20-27---25---------|
G|----19----17-24-----19----17-24-----19----17-24-----19----17-24-----19---17-24------|
D|-------------17--------------17--------------17--------------17-------------17------|
A|------------------------------------------------------------------------------------|
E|------------------------------------------------------------------------------------|
|
e|-27----22----20---------------------------------------------------------------------|
B|-----------------20----------13-----------------------------------------------------|
G|-----------------------19--------12-------------------------------------------------|
D|---------------------------------------12----10-------------------------------------|
A|-------------------------------------------------10------------------------------10-|
E|-------------------------------------------------------10-----8---3----8----10------|

e|-------------------||
B|------------------o||
G|-16--17--18--19----||
D|-------------------||
A|------------------o||
E|-------------------||
|
e|-------------------||
B|-------------12---o||
G|-12--14--15--------||
D|-------------------||
A|------------------o||
E|-------------------||



************************************

| (n)  Ghost note
| b    Bend  

************************************
Добавлено: 22.10.2017
Другие материалы по этой песне:

Страница создана 12.12.2013
http://primanota.ru/misc-computer-games/castlevania-3-riddle-chords.htm
Привет, Гость.
Предлагаем пройти революционный курс по гитаре.
Подарок от PrimaNota.Ru, забирай!