PrimaNota.ru - самый крупный в мире бесплатный архив песенных текстов, аккордов, табулатур и нот


Misc Computer Games - Legend Of Zelda - Wind Waker - Legendary Hero - таба, видео

Регистрация Запомнить меня
Войти через:  Facebook Google Twitter Vk Yandex Mail.ru

Misc Computer Games - Legend Of Zelda - Wind Waker - Legendary Hero - таба, видео

Печатать
Просмотров: 121
 The Legendary Hero                                
~The Legend of Zelda: The Wind Waker~
Composed By: Koji Kondo
Arranged By: Justin Lincoln  

     Q    X X X X E.     Q    Q       W                 
E||---------------0---|--L---------|-------------------|
B||---------0-1-3-----|------------|-------------------|
G||-------2-----------|------------|-------------------|
D||-------------------|-------2----|--3----------------|
A||--0----------------|------------|-------------------|
E||-------------------|------------|-------------------|


  E  S S Q    E  S S E  E     H.           E  E     E  S S Q.     S S E  E   
-----0-0-0----L--0---------|---------------------|-----0-0-0------0---------|
-------------------1-3--0--|---------------------|-----1-1-1------1-1-3--0--|
--2------------------0--0--|--2------------------|------------------2-0--0--|
---------------------------|--2------------0--0--|--2-----------------------|
---------------------------|---------------------|--------------------------|
---------------------------|---------------------|--------------------------|


  E  S S E  E  Q    E  E     E  E  T T S E  Q    E  E   
--------------------------|----------------------------|
--------------------------|-----1--0-1-0---------------|
--2-----------------0--0--|--2-----------0----------0--|
--2------0----------2--2--|--3--------------2----------|
-----2-3----2-------------|--0--------------3----3-----|
---------------3-------0--|----------------------------|


  E  E  T T S E  E  S S E  E     E  E  T T S E  E  E  E  E   
-----------------0------------|-----------------------------|
-----1--0-1-0-----------------|-----1--0-1-0----------------|
--2-----------0--0---------0--|--2-----------0--------------|
--3-------------------0-2-----|--3--------------2-----0--3--|
-----------------3--3---------|--0--------------3--3--------|
--1---------------------------|-----------------------------|


           ^                       ^                        ^         
  H        H           E  E  E  E  Q    Q       E  E  E  E  H         
--------------------|------------------------|-----------------------|
--0-----------------|--------------0---------|-----------3--0--------|
-----------1--------|-----------1--1---------|--------------1--------|
--2--------2--------|--0--2--3-----3----0----|--0--2--3-----2--------|
--------------------|------------------------|--2--------------------|
-----------0--------|--0---------------------|-----------------------|


  E  E  E  E  E  E  E  E     E  E  E  E  E  E  E  E      W                 
--------------------------|-----------1--7--------7--|--10----------------|
--------------------0--3--|-----0--3--------6--9-----|--------------------|
-----------1--------------|--1-----------7-----------|--------------------|
--0--2--3-----3--6--------|--3-----------------------|--------------------|
--2-----------5-----------|--------------------------|--------------------|
--------------------------|--------------------------|--------------------|


       |--3--|  |--3-|  |--3--|     |--3-|  |--3--|  |--3-|  |--3--|   
  Q    E  E  E  Q    E  E  E  E     Q    E  E  E  E  Q    E  E  E  E   
---------------------------------|------------------------------------|
---------------------------------|------------------------------------|
--2------------------2--2--2--2--|--2----0--2-------------2--2--2--2--|
--2---------------------2--------|--0------------------------0--------|
--0----0--0--0--0-------0--------|------------------------------------|
---------------------------------|--3-------3--3--3--3-------3--------|


  |--3-|  |--3--|  |--3-|  |--3--|                                 
  Q    E  E  E  E  Q    E  E  E  E     E  S S E  S S E  S S E  E   
------------------------------------|-----------------------------|
------------------------------------|-----------------------------|
--2----0--2-------------2--2--2--2--|--2--------------------------|
------------------------------------|-----2-2-2--2-2-2--2-2-2-----|
--3------------------------3--------|---------1------2------------|
--1-------1--1--1--1-------1--------|--0------0------0------2--4--|


       |--3--|  |--3-|                  |--3--|  |--3-|  |--3--|   
  Q    E  E  E  Q    E  S S S S    Q    E  E  E  Q    E  E  E  E   
--------------------------------|--0------------------0--0--1--3--|
--------------------------0-1-3-|--0---------------------0--------|
--2------------------2--2-------|--0---------------------0--------|
-------2------------------------|---------------------------------|
--0----0--0-----0-------0-------|---------------------------------|
-------------3------------------|--3----3--3--1--3----------------|


                                                          ^     
       |--3--|  |--3-|  |--3--|     |--3-|  |--3--|             
  Q    E  E  E  Q    E  E  E  E     Q    E  E  E  E  Q    Q     
--5------------------5--5--3--1--|--3----1--0-------------0----|
---------------------------------|------------------------1----|
--5------------------------------|--0---------------------0----|
--3----3--3--2--3-------3--------|------------------------2----|
---------------------------------|--3-------3--3--2--3----3----|
---------------------------------|-----------------------------|


         |--3--|                        |--3--|               
  E  S S E  E  E  E  E  E  E     E  S S E  E  E  E  E  E  E   
-------0-1--------------0-----|---------0--------------------|
--3--3---------------------3--|--1--1-3----------------3--1--|
------------------------------|------------------------------|
--3------------------0--3-----|--2---------------------2-----|
--1------1--1--0--1-----1-----|--0------0--0-----0--3--0-----|
------------------------------|---------------3--------------|


                                                    ^  v  ^   
         |--3--|                                    |--3--|   
  E  S S E  E  E  Q    Q       E  S S E  S S E  S S E  E  E   
-----------------------1----|--0--0-0------------------------|
--0--0-1-3------------------|---------3--3-3-1--1-1-0--0--0--|
-----------------------2----|--1------4------2------1--1--1--|
--2-------------------------|-----------------------2--2--2--|
-----------------------2----|-----------------------2--2--2--|
--0------0--0--2--4---------|--0------0------0------0--0--0--|


       |--3--|  |--3-|                  |--3--|  |--3-|  |--3--|   
  Q    E  E  E  Q    E  S S S S    Q    E  E  E  Q    E  E  E  E   
--------------------------------|--0------------------0--0--1--3--|
--------------------------0-1-3-|--0---------------------0--------|
--2------------------2--2-------|--0---------------------0--------|
-------2------------------------|---------------------------------|
--0----0--0-----0-------0-------|---------------------------------|
-------------3------------------|--3----3--3--1--3----------------|


       |--3--|                    |--3--|             
  Q    E  E  E  Q    Q       Q    E  E  E  Q    Q     
--5------------------8----|--7----4-------------0----|
--------------------------|-------0------------------|
--5-----------------------|---------------------1----|
--3----3--3--2--3----7----|--6-----------------------|
--------------------------|---------------------2----|
--------------------------|-------0--0--2--4---------|


                                      ^  v  ^  v          
  |--3--|  |--3--|                    |--3--|             
  E  E  E  E  E  E  Q    Q       Q    E  E  E  Q    Q     
--1-----------------1----5----|--4----0--0--0--0----0----|
-----------------1------------|-------0--0--0--0---------|
--------------2-----2----5----|--4----1--1--1--1---------|
-----------3------------------|-------2--2--2--2---------|
-----0--3---------------------|-------2--2--2--2---------|
------------------------------|-------0--0--0--0---------|


                                      ^  v  ^  v                               
  |--3--|  |--3--|                    |--3--|                                  
  E  E  E  E  E  E  Q    Q       Q    E  E  E  Q    Q       H.           Q     
--1-----------------1----5----|--4----0--0--0--0---------|---------------1----|
-----------------1------------|-------0--0--0--0----2----|--3-----------------|
--------------2-----2----5----|--4----1--1--1--1---------|--------------------|
-----------3------------------|-------2--2--2--2---------|--------------------|
-----0--3---------------------|-------2--2--2--2---------|--1-----------------|
------------------------------|-------0--0--0--0---------|--------------------|


  Q    H        Q       H        Q    Q       W                 
--0------------------|---------------------|-------------------|
-------1-------------|--0-------------0----|-------------------|
----------------2----|---------------------|--1----------------|
---------------------|-----------4---------|-------------------|
--0------------------|--2------------------|-------------------|
---------------------|---------------------|--0----------------|


                             ^                                   
  H        Q.     E     Q    H.              H        Q.     E   
--5------------------|--0----0------------|--5---------------8--|
------------------6--|-------0------------|---------------------|
-----------5---------|-------1------------|-----------5---------|
--3------------------|-------2------------|--3------------------|
---------------------|-------2------------|---------------------|
---------------------|-------0------------|---------------------|


       ^                                     ^        ^         
  Q    H.              H        Q.     E     H        H         
--7----0------------|--5------------------|--0--------1--------|
-------0------------|------------------6--|--0--------1--------|
-------1------------|-----------5---------|--2--------2--------|
-------2------------|--3------------------|--2--------3--------|
-------2------------|---------------------|--2--------3--------|
-------0------------|---------------------|--0--------1--------|


  ^                            ^                       
  H        S S S S S S S S     H.            S  S S S  
--0----------------0-----7-|--12-------------L-10-8-7-|
--0--------------0---6-9---|---9----------------------|
--1------------1-----------|---9----------------------|
--2----------2-------------|--------------------------|
--2--------2---------------|--------------------------|
--0------------------------|--------------------------|


   S S S S S S S S S S S S S S S S    S S S S S S S S S S S S S S S S  
--10-8-7-5-8-7-5-3-7-5-3---5-3---0-|--3-1-0---1-0-----0---------------|
-------------------------6-----6---|--------3-----3-1---3-1-0-3-1-0---|
-----------------------------------|--------------------------------2-|
-----------------------------------|----------------------------------|
-----------------------------------|----------------------------------|
-----------------------------------|----------------------------------|


                ^           ^        ^                              
  S S S S E  E  H           H        H           H        H         
-------------------------|--------------------|--0--------0--------|
-------------------------|--1--------0--------|--0-----------------|
--1-------------1--------|--2--------1--------|-----------2--------|
----3-0---------2--------|--3--------2--------|--------------------|
--------2-------2--------|--3--------2--------|--------------------|
----------4--1--0--------|--1--------0--------|--------------------|


  W                   E  S S Q    E  S S E  E     H.           E  E   
--0----------------|-----0-0-0----L--0---------|---------------------|
-------------------|-------------------1-3--0--|---------------------|
--1----------------|---------------------0--0--|--2------------------|
-------------------|--2------------------0--0--|--2------------0--0--|
-------------------|--0------------------------|--0------------------|
-------------------|---------------------3--3--|---------------3--3--|


  E  S S Q.     S S E  E     H.           E  E     E  E  T T S E  H         
-----0-0-0------0---------|---------------------|--------------------------|
-----1-1-1------1-1-3--0--|---------------------|-----1--0-1-0-------------|
------------------2-0--0--|--2------------------|--2-----------0-----------|
--2-----------------0--0--|--2------------0--0--|--3--------------2--------|
--0-----------------------|--0------------------|-----------------3--------|
--------------------3--3--|---------------3--3--|--1-----------------------|


  E  E  T T S E  H           E  E  T T S E  Q.     E     H        H         
-----------------0--------|---------------------------|--------------------|
-----1--0-1-0-------------|-----1--0-1-0--------------|--------------------|
--2-----------0--0--------|--2-----------0------------|--2--------1--------|
--3-----------------------|--3--------------2------0--|--2-----------------|
-----------------3--------|-----------------3---------|--2-----------------|
--1-----------------------|--1------------------------|--0-----------------|


  E  S S Q    E  S S E  E     H.           E  E     E  S S Q.     S S E  E   
-----0-0-0----L--0---------|---------------------|-----0-0-0------0---------|
-------------------1-3--0--|---------------------|-----1-1-1------1-1-3--0--|
---------------------0--0--|--2------------------|------------------2-0--0--|
--2------------------0--0--|--2------------0--0--|--2-----------------0--0--|
--0------------------------|--0------------------|--0-----------------------|
---------------------3--3--|---------------3--3--|--------------------3--3--|


                                                               ^          
  H.           E  E     E  E  E  E  E  E  E  E     E  E  E  E  H          
---------------------|-----------------------1--|--------1--3--5--------||
---------------------|-----------1--------1-----|-----1--------2--------||
--2------------------|--2-----2--------2--------|--2-----------2--------||
--2------------0--0--|-----3--------3-----------|-----------------------||
--0------------------|--------------------------|--------------0--------||
---------------3--3--|--1-----------------------|-----------------------||




Duration Legend
---------------
W - whole
H - half
Q - quarter
E - 8th
S - 16th
T - 32nd
X - 64th
. - note dotted
|-n-|  - n-tuplets


Tablature Legend
----------------
L - tied note
^ - brush up
v - brush down
Добавлено: 31.05.2015
Другие материалы по этой песне:

Страница создана 20.04.2014
http://primanota.ru/misc-computer-games/legend-of-zelda-wind-waker-legendary-hero-chords.htm
Привет, Гость.
Предлагаем пройти революционный курс по гитаре.
Подарок от PrimaNota.Ru, забирай!