PrimaNota.ru - самый крупный в мире бесплатный архив песенных текстов, аккордов, табулатур и нот


Misc Computer Games - Final Fantasy - Matoyas Cave - таба, бас-таба, видео

Регистрация Запомнить меня
Войти через:  Facebook Google Twitter Vk Yandex Mail.ru

Misc Computer Games - Final Fantasy - Matoyas Cave - таба, бас-таба, видео

Печатать
Просмотров: 122
Уроки эстрадного вокала в Санкт-Петербурге
Gtr I (E A D G B E) - Melody
Gtr II (E A D G B E) - Accompaniment

  Q=145
  Gtr I
  H     E  E  E E    Q     E  E  Q     E  E
|-----------------|-------------------------|
|-----------------|-------------------------|
|-----------------|-------------------------|
|-----------------|-------------------------|
|-------------9---|-10-----9--7--------7----|
|-------7-10----7-|-------------10-------10-|
|
| Gtr II
| H     E  E  E E    E  E  E  E  E  E  E  E
|-----------------|-------------------------|
|-----------------|-------------------------|
|-----------------|-------------------------|
|-----------------|-------------------------|
|----------9----9-|----10----10----10----10-|
|------10----10---|-10----10----10----10----|


  H        E E  E  E    Q    E  E  Q    E E
|--------------------|----------------------|
|--------------------|----------------------|
|--------------------|----------------------|
|---------------7----|--9----7--------------|
|------------9-------|---------10--9---10-9-|
|-9-------10------10-|----------------------|
|
| E E E E  E E  E  E    E E  E  E  E E  E E
|--------------------|----------------------|
|--------------------|----------------------|
|--------------------|----------------------|
|---7---7----7-----7-|----9-----9----9----9-|
|--------------------|----------------------|
|-9---9---10---10----|-10---10----10---10---|


                            |--3---|
  Q   E  E H        Q   Q   E E    E Q
|-----------------|---------------------|
|-----------------|---------------------|
|-----------------|---------------------|
|----------7------|---------------------|
|-7---9-10--------|-----7---------------|
|-----------------|-9------10-9---10-7--|
|
| E E E  E E E Q    E E Q   E   E    Q
|-----------------|---------------------|
|-----------------|---------------------|
|-----------------|---------------------|
|---7----7-7-7----|-7-7-----------------|
|-----------------|---------9---9-------|
|-9---9-----------|---------------------|


                                |---3---|
  +Q     E E H         Q    Q   E  E    E Q
|-------------------|------------------------|
|-------------------|------------------------|
|-------------------|------------------------|
|----------7-9------|------------------------|
|-------10----------|------10---9-10----9-7--|
|-(7)---------------|-10---------------------|
|
|  E  E  Q   E E Q     E E  Q   E     E   Q
|-------------------|------------------------|
|-------------------|------------------------|
|-------------------|------------------------|
|------------9-9----|--9-9-----11----11------|
|--9--9-------------|------------------------|
|-------------------|------------------------|


  +Q     E E  H         +E  E E  E S S  S S Q
|--------------------|-------------------------|
|--------------------|-------------------------|
|--------------------|-------------9-7----7----|
|--------7-9-11------|-(11)-7-9-11-----11---9--|
|-(7)----------------|-------------------------|
|--------------------|-------------------------|
|
|  E   E Q    E E Q      E  E Q    E    E   Q
|--------------------|-------------------------|
|--------------------|-------------------------|
|--------------------|-------------------------|
|-11--11------7-7----|---7--7------------------|
|--------------------|-------------9----9------|
|--------------------|-------------------------|


  +E  E  E E H           +E   E  E  E  H
|----------------------|-------------------------|
|----------------------|-------------------------|
|----------------------|-------------------------|
|-(9)-7----------------|-------------------------|
|-------10-9-7---------|-(7)--------7------------|
|----------------------|------8-10----10---------|
|
|  E  E  Q   E  E E  E    E   E  E  E  E  E E  E
|----------------------|-------------------------|
|----------------------|-------------------------|
|----------------------|-------------------------|
|----------------------|-------------------------|
|--9--9------7-10-7-10-|--7--10--7-10--7-10-7-10-|
|----------------------|-------------------------|


  Q        Q        H        +W
|--------------------------|-------------------|
|--------------------------|-------------------|
|--------------------------|-------------------|
|--------------------------|-------------------|
|-------------------5------|-(5)---------------|
|-9--------5---------------|-------------------|
|
| S  S S S S S  S S Q   Q     Q    Q  E E  E E
|--------------------------|-------------------|
|--------------------------|-------------------|
|--------------------------|-------------------|
|-7------------------------|----------7-7----7-|
|---10-9-7-9-7------9------|-10----------------|
|--------------10-9----10--|------10------10---|


  +Q   S S S S H        +W
|---------------------|-------------------|
|---------------------|-------------------|
|---------------------|-------------------|
|---------------------|-------------------|
|-(5)--5-4-2-4-5------|-(5)---------------|
|---------------------|-------------------|
|
|  Q   Q       Q   Q     Q    Q  E E  E E
|---------------------|-------------------|
|---------------------|-------------------|
|---------------------|-------------------|
|---------------------|----------7-7----7-|
|-10---7-------9------|-10----------------|
|-----------------10--|------10------10---|


  +Q   S S  S S H        +W
|----------------------|-------------------|
|----------------------|-------------------|
|----------------------|-------------------|
|----------------------|-------------------|
|-(5)--9-7----7-9------|-(9)---------------|
|----------10----------|-------------------|
|
|  Q   Q        Q   Q     Q    Q  E E  E E
|----------------------|-------------------|
|----------------------|-------------------|
|----------------------|-------------------|
|----------------------|----------7-7----7-|
|-10---7--------9------|-10----------------|
|------------------10--|------10------10---|


                 ~~~~~~~~~~~~~
  +Q   S  S S  S H        +W
|-----------------------|-------------------|
|-----------------------|-------------------|
|-----------------------|-------------------|
|------7---------7------|-(7)---------------|
|-(9)----10-9-10--------|-------------------|
|-----------------------|-------------------|
|
|  Q   Q         Q   Q     Q    Q  E E  E E
|-----------------------|-------------------|
|-----------------------|-------------------|
|-----------------------|-------------------|
|-----------------------|----------7-7----7-|
|-10---7---------9------|-10----------------|
|-------------------10--|------10------10---|


   S S  S S S S S S H
|------------------------|
|------------------------|
|------------------------|
|------------------------|
|--9-7------7-5-4--------|
|------10-9-------6------|
|
|  Q    Q
|------------------------|
|------------------------|
|------------------------|
|------------------------|
|-10---------------------|
|------10----------------|


Добавлено: 31.05.2015
Другие материалы по этой песне:

Страница создана 19.02.2014
http://primanota.ru/misc-computer-games/final-fantasy-matoyas-cave-chords.htm
Привет, Гость.
Предлагаем пройти революционный курс по гитаре.
Подарок от PrimaNota.Ru, забирай!