PrimaNota.ru - самый крупный в мире бесплатный архив песенных текстов, аккордов, табулатур и нот


Mindless Self Indulgence - Prescription - текст песни, таба, видео

Регистрация Запомнить меня
Войти через:  Facebook Google Twitter Vk Yandex Mail.ru

Mindless Self Indulgence - Prescription - текст песни, таба, видео

Печатать
Просмотров: 128
Tab Legend:
----------------
(.) - Palm muted
 X  - Dead note
(/) - Slide up
(\) - Slide down
(~) - Hold note for while
 L  - Long note
 s  - Short note


4. Prescription:
-----------------

     ss                  ss                  ss                  ss              x2 
e|||-------------------|-------------------|-------------------|-------------------|
B|||-------------------|-------------------|-------------------|-------------------|
G|||-------------------|-22----------------|-------------------|-88----------------|
D|||-22----------------|-22----------------|-55----------------|-88----------------|
A|||-22----------------|-00----------------|-55----------------|-66----------------|
E|||-00----------------|-------------------|-33----------------|-------------------|


  L                    L                 L                                      
--3------------------|-0---------------|-3-----------------|-------------------|
--3------------------|-1---------------|-3-----------------|-------------------|
--0------------------|-2---------------|-0-----------------|-99999999----------|
--0------------------|-2---------------|-0-----------------|-99999999----------|
--X------------------|-0---------------|-X-----------------|-77777777----------|
--3------------------|-----------------|-3-----------------|-------------------|


                
-------------------|-------------------|-------------------|-------------------|
-------------------|-------------------|-------------------|-------------------|
-99999999----------|-12121212121212----|-44444444----------|-77777777----------|
-99999999----------|-12121212121212----|-44444444----------|-77777777----------|
-77777777----------|-10101010101010----|-22222222----------|-55555555----------|
-------------------|-------------------|-------------------|-------------------|


            
-------------------|-------------------|-------------------|-------------------|
-------------------|-------------------|-------------------|-------------------|
-------------------|-12121212121212----|-44444444----------|-77777777----------|
-55555555----------|-12121212121212----|-44444444----------|-77777777----------|
-55555555----------|-10101010101010----|-22222222----------|-55555555----------|
-33333333----------|-------------------|-------------------|-------------------|


                     play only this x4
                   |---------------------------------------|
                   | s s s  s s s        s s s  s s s      |
-------------------|-------------------|-------------------|-------------------|
-------------------|-------------------|-------------------|-------------------|
-------------------|--------7-7-7------|-4-4-4--4-4-4------|-------------------|
-55555555----------|-5-5-5--7-7-7------|-4-4-4--4-4-4------|-------------------|
-55555555----------|-5-5-5--5-5-5------|-2-2-2--2-2-2------|-------------------|
-33333333----------|-3-3-3-------------|-------------------|-------------------|


 ss                  ss                  ss                  ss               x2 
-------------------|-------------------|-------------------|-------------------|
-------------------|-------------------|-------------------|-------------------|
-------------------|-22----------------|-------------------|-88----------------|
-22----------------|-22----------------|-55----------------|-88----------------|
-22----------------|-00----------------|-55----------------|-66----------------|
-00----------------|-------------------|-33----------------|-------------------|


  L                    L                 L                                      
--3------------------|-0---------------|-3-----------------|-------------------|
--3------------------|-1---------------|-3-----------------|-------------------|
--0------------------|-2---------------|-0-----------------|-99999999----------|
--0------------------|-2---------------|-0-----------------|-99999999----------|
--X------------------|-0---------------|-X-----------------|-77777777----------|
--3------------------|-----------------|-3-----------------|-------------------|


                
-------------------|-------------------|-------------------|-------------------|
-------------------|-------------------|-------------------|-------------------|
-99999999----------|-12121212121212----|-44444444----------|-77777777----------|
-99999999----------|-12121212121212----|-44444444----------|-77777777----------|
-77777777----------|-10101010101010----|-22222222----------|-55555555----------|
-------------------|-------------------|-------------------|-------------------|


            
-------------------|-------------------|-------------------|-------------------|
-------------------|-------------------|-------------------|-------------------|
-------------------|-12121212121212----|-44444444----------|-77777777----------|
-55555555----------|-12121212121212----|-44444444----------|-77777777----------|
-55555555----------|-10101010101010----|-22222222----------|-55555555----------|
-33333333----------|-------------------|-------------------|-------------------|


                     
                   |---------------------------------------|
                   | s s s  s s s        s s s  s s s    x4|
-------------------|-------------------|-------------------|-------------------|
-------------------|-------------------|-------------------|-------------------|
-------------------|--------7-7-7------|-4-4-4--4-4-4------|-------------------|
-55555555----------|-5-5-5--7-7-7------|-4-4-4--4-4-4------|-------------------|
-55555555----------|-5-5-5--5-5-5------|-2-2-2--2-2-2------|-------------------|
-33333333----------|-3-3-3-------------|-------------------|-------------------|



                                                                            
-------------------|-------------------|-------------------|-------------------|
-------------------|-------------------|-------------------|-------------------|
-2-2-24-4-4--------|-------------------|-2-2-24-4-4--------|-------------------|
-2-2-24-4-4--------|-4-4-42-2-2--------|-2-2-24-4-4--------|-4-4-42-2-2--------|
-0-0-02-2-2--------|-4-4-42-2-2--------|-0-0-02-2-2--------|-4-4-42-2-2--------|
-------------------|-2-2-20-0-0--------|-------------------|-2-2-20-0-0--------|


              
-------------------|-------------------|-------------------|-------------------|
-------------------|-------------------|-------------------|-------------------|
-------------------|-------------------|-------------------|-------------------|
-4444444444444444--|-------------------|-------------------|-9999999999999999--|
-2222222222222222--|-5555555555555555--|-7777777777777777--|-7777777777777777--|
-------------------|-3333333333333333--|-5555555555555555--|-------------------|
pm..............................................................................

  
-------------------|-------------------|-------------------|-------------------|
-------------------|-------------------|-------------------|-------------------|
-------------------|-------------------|-------------------|-9999999999999999--|
-4444444444444444--|-------------------|-------------------|-9999999999999999--|
-2222222222222222--|-5555555555555555--|-7777777777777777--|-7777777777777777--|
-------------------|-3333333333333333--|-5555555555555555--|-------------------|
pm..........................................................

 
-------------------|-------------------|-------------------|
-------------------|-------------------|-------------------|
-12121212121212----|-44444444----------|-77777777----------|
-12121212121212----|-44444444----------|-77777777----------|
-10101010101010----|-22222222----------|-55555555----------|
-------------------|-------------------|-------------------|


            
-------------------|-------------------|-------------------|-------------------|
-------------------|-------------------|-------------------|-------------------|
-------------------|-12121212121212----|-44444444----------|-77777777----------|
-55555555----------|-12121212121212----|-44444444----------|-77777777----------|
-55555555----------|-10101010101010----|-22222222----------|-55555555----------|
-33333333----------|-------------------|-------------------|-------------------|


                       End with this...
                   |---------------------------------------|
                   | s s s  s s s        s s s  s s s    x2|
-------------------|-------------------|-------------------|-------------------|
-------------------|-------------------|-------------------|-------------------|
-------------------|--------7-7-7------|-4-4-4--4-4-4------|-------------------|
-55555555----------|-5-5-5--7-7-7------|-4-4-4--4-4-4------|-------------------|
-55555555----------|-5-5-5--5-5-5------|-2-2-2--2-2-2------|-------------------|
-33333333----------|-3-3-3-------------|-------------------|-------------------|FINALY!

Добавлено: 01.09.2013
Другие материалы по этой песне:
  • Аккорды и текст

Страница создана 01.09.2013
http://primanota.ru/mindless-self-indulgence/prescription-chords.htm
Привет, Гость.
Предлагаем пройти революционный курс по гитаре.
Подарок от PrimaNota.Ru, забирай!