PrimaNota.ru - самый крупный в мире бесплатный архив песенных текстов, аккордов, табулатур и нот


Mindless Self Indulgence - Youre No Fun Anymore Mark Trezona - бас-таба, видео

Регистрация Запомнить меня
Войти через:  Facebook Google Twitter Vk Yandex Mail.ru

Mindless Self Indulgence - Youre No Fun Anymore Mark Trezona - бас-таба, видео

Печатать
Просмотров: 61
Mindless Self Indlugence
How I Learned to Stop Giving a Shit and Love Mindless Self Indulgence
"You're No Fun Anymore Mark Trezona"

| /  slide up
| ~  vibrato



[VERSE 1] x2
G|-------------------------------------------|
D|-------------------------------------------|
A|-1/3-3-3-3--1/3-3-3-3--1/3-3-3-3--1-1-666--| 
E|-------------------------------------------|
 
[CHORUS] x2
G|----------------------------------------|
D|----------------------------------------|
A|---1/3-3-3-----6~--1/3-3-3-----6666-----| 
E|-----------444-------------444----------|

[CHORUS]
G|---------------------------------------|
D|---------------------------------------|
A|--66666666-88888888888888888888-6666---|
E|---------------------------------------|

[END CHORUS]
G|------------------------------|
D|------------------------------|
A|--1-1-6666--1/3~--1/3~--1/3~--|


[VERSE 1] x2
G|-------------------------------------------|
D|-------------------------------------------|
A|-1/3-3-3-3--1/3-3-3-3--1/3-3-3-3--1-1-666--| 
E|-------------------------------------------|
 
[CHORUS] x2
G|----------------------------------------|
D|----------------------------------------|
A|---1/3-3-3-----6~--1/3-3-3-----6666-----| 
E|-----------444-------------444----------|

[CHORUS]
G|---------------------------------------|
D|---------------------------------------|
A|--66666666-88888888888888888888-6666---|
E|---------------------------------------|

[END CHORUS]
G|------------------------------|
D|------------------------------|
A|------6666--1/3~--1/3~--1/3~--|
E|--4-4-------------------------|

[BRIDGE] x3
G|------------------------------------------------|
D|------------------------------------------------|
A|---3-3--6666-------6666-------6666--1-1-6666----| 
E|--------------3-3--------4-4--------------------|

[BRIDGE 2]
G|--------------------------------------------------|
D|--------------------------------------------------|
A|--66666666-888888888888888888888888-10101010-6666-|
E|--------------------------------------------------|

G|--------------------------------------------------------|
D|--------------------------------------------------------|
A|--1/3~3333-6666666666666666-8888-10101010-6666-1/3~-----| **those are 10's
E|--------------------------------------------------------|

[OUTRO]  x3
G|------------------------------|
D|------------------------------|
A|--1/3~-1/3~-1/3~----666-------| 
E|-----------------44-----------|

[END]
G|--------|
D|--------|
A|--1/3~--|
E|--------|


hope you enjoyed!


Добавлено: 05.07.2015
Другие материалы по этой песне:
  • Аккорды и текст

Страница создана 05.07.2015
http://primanota.ru/mindless-self-indulgence/youre-no-fun-anymore-mark-trezona-chords.htm
Привет, Гость.
Предлагаем пройти революционный курс по гитаре.
Подарок от PrimaNota.Ru, забирай!