PrimaNota.ru - самый крупный в мире бесплатный архив песенных текстов, аккордов, табулатур и нот


Mindless Self Indulgence - Witness - таба, бас-таба, видео

Регистрация Запомнить меня
Войти через:  Facebook Google Twitter Vk Yandex Mail.ru

Mindless Self Indulgence - Witness - таба, бас-таба, видео

Печатать
Просмотров: 204
-------------------------------------------------------------------------------
                      Witness - Mindless Self Indulgence
-------------------------------------------------------------------------------

Tuning: Standard

Note: This may not be completely right.

Intro
e|---------------------------------------------------------------------------|
B|---------------------------------------------------------------------------|
G|--6-6--7-7-7--6-6--4-4-4--x8-----------------------------------------------|
D|--4-4--9-9-9--8-8--6-6-6---------------------------------------------------|
A|---------------------------------------------------------------------------|
E|---------------------------------------------------------------------------|
  Son of a bitch! God likes me! I am the best! Fuck everybody else! Suck on 
  my dick! I'm perfect! I am the best! Fuck everybody else! (God likes me)
Chorus
e|---------------------------------------------------------------------------|
B|----------7--x16------------------------------7--x16-----------------------|
G|----------7-----------------------------------7----------------------------|
D|----------5------9-x16--7--x8--6--x8----------5-------9--x16--7--x8--------|
A|--4--x16---------9------7------6------4---------------9-------7------------|
E|--2--------------7------5------4------2--x16----------7-------5------------|
  I need a witness to my life. It wasn't this way all the time. Got money 
  got girls get high. Oh oh oh oh, can you fucking believe it?
  Verse 2  

  Intro x4
e|---------------------------------------------------------------------------|
B|---------------------------------------------------------------------------|
G|---------------------------------------------------------------------------|
D|---------------------------------------------------------------------------|
A|--4-4---7-7-7--6-6---4-4-4--x3--4-4--7-7-7----6--x8------------------------|
E|--2-2---5-5-5--4-4---2-2-2------2-2--5-5-5----4----------------------------|
  I am born again hard x3 I am born again (Son of a-)

  Chorus x1
e|---------------------------------------------------------------------------|
B|---------------------------------------------------------------------------|
G|---------------------------------------------------------------------------|
D|------------------------------------------------7-7---6-6--x3--------------|
A|------------------------------------------4-4---5-5---4-4------------------|
E|------------------------------------------2-2---0-0---0-0------------------|
  Oh oh, oh oh oh oh, oh oh oh oh oh oh x2 
  Verse 3
e|---------------------------------------------------------------------------|
B|---------------------------------------------------------------------------|
G|--4--4-4-------------------------------------------------------------------|
D|--4--4-4----4--x16--7--x16--6--x16----------------------4--x16--7--x16-----|
A|--2--2-2----4-------5-------4---------------------------4-------5----------|
E|--0--0-0----2-------0-------0---------------------------2-------0----------|
  Let's. Fucking. Go!                 Stop. Give me time.
e|---------------------------------------------------------------------------|
B|---------------------------------------------------------------------------|
G|----------4--4--4--4-4-4---------------------------------------------------|
D|--6--x16--4--4--4--4-4-4--4---7--6-----------------------------------------|
A|--4-------2--2--2--2-2-2--4---5--4-----------------------------------------|
E|--0-----------------------2---0--0-----------------------------------------|
                         Got money got girls get high everybody x4
e|---------------------------------------------------------------------------|
B|---------------------------------------------------------------------------|
G|---------------------------------------------------------------------------|
D|-----------------------------------------4--x16--7--x16--4-x16-------------|
A|-----5--4--------------------------------4-------5-------2-----------------|
E|--2--------------------------------------2-------0-------0-----------------|
  Got money got girls get high everybody  Got money got girls get high
  Ending
e|---------------------------------------------------------------------------|
B|---------------------------------------------------------------------------|
G|---------------------------------------------------------------------------|
D|--7--x8--6--x8-------------------------------------------------------------|
A|--7------6-----------------------------------------------------------------|
E|--5------4-----------------------------------------------------------------|
  Can you fucking believe it?

  Chorus x1

  And that's it! I hope this helped. 
Добавлено: 25.10.2015
Другие материалы по этой песне:
  • Аккорды и текст

Страница создана 19.11.2014
http://primanota.ru/mindless-self-indulgence/witness-chords.htm
Привет, Гость.
Предлагаем пройти революционный курс по гитаре.
Подарок от PrimaNota.Ru, забирай!