PrimaNota.ru - самый крупный в мире бесплатный архив песенных текстов, аккордов, табулатур и нот


Mindless Self Indulgence - Witness Live - бас-таба, видео

Регистрация Запомнить меня
Войти через:  Facebook Google Twitter Vk Yandex Mail.ru

Mindless Self Indulgence - Witness Live - бас-таба, видео

Печатать
Просмотров: 147
PLAY THIS TO A LIVE TRACK,

VERSE
G----------------------------|
D----------------------------|
A----------66--999--8-88-666-|
E----------------------------|

CHORUS
G-------------------------------------|
D-------------------------------------|
A---6-(X16)---------------------------|
E----------7-(X16)--4-(X16)-2222-1111-|

VERSE
G----------------------------|
D----------------------------|
A----------66--999--8-88-666-|
E----------------------------|

CHORUS
G-------------------------------------|
D-------------------------------------|
A---6-(X16)---------------------------|
E----------7-(X16)--4-(X16)-2222-1111-|
Добавлено: 20.10.2013
Другие материалы по этой песне:
  • Аккорды и текст

Страница создана 20.10.2013
http://primanota.ru/mindless-self-indulgence/witness-live-chords.htm
Привет, Гость.
Предлагаем пройти революционный курс по гитаре.
Подарок от PrimaNota.Ru, забирай!