PrimaNota.ru - самый крупный в мире бесплатный архив песенных текстов, аккордов, табулатур и нот


Mindless Self Indulgence - Brooklyn Hype - бас-таба, видео

Регистрация Запомнить меня
Войти через:  Facebook Google Twitter Vk Yandex Mail.ru

Mindless Self Indulgence - Brooklyn Hype - бас-таба, видео

Печатать
Просмотров: 105
Brooklyn Hype (Live @ CBGB's) - Mindless Self Indulgence (Bass Tab)

Tuning- Standard

This is my FIRST ever attempt at doing a TAB so it's all by ear, Im fully aware that 
is probably not 100% correct but perhaps someone can finnsh where I left off on some parts.


I do not have the CD version of this song so the timing is set to the live @CBGB's video 
you can find on youtube.

ANYTHING IN BRACKETS MUST BE PLAYED THE LAST TIME AROUND


Verse
G|---------------------------------------------------------------|
D|---------------------------------------------------------------|
A|-55-7----7(*Do not play the 7 on the last time) ---------------| (X5)
E|---------------------------------------------------------------|

G|---------------------------------------------------------------|
D|---------------------------------------------------------------|
A|11--33--00--44------------------------------------------------ |
E|---------------------------------------------------------------|


G|---------------------------------------------------------------|
D|---------------------------------------------------------------|
A|11--33--00--4444-----------------------------------------------|
E|---------------------------------------------------------------|

Chorus

G|-----------------------------------------------------------------|
D|-----------------------------------------------------------------|
A|33--66--55--22--4444---------------------------------------------|
E|-----------------------------------------------------------------| (x2)

G|---------------------------------------------------------------|
D|---------------------------------------------------------------|
A|22--3--0-------------------------------------------------------| (x2)
D|---------------------------------------------------------------|


Verse (x1) (This verse in the video sounds as if it is a step down so play this )
G|-----------------------------------------------------------------|
D|-----------------------------------------------------------------|
A|-00-5----5(*Do not play the 5 on the last time) -----------------| (X5)
E|-----------------------------------------------------------------|
(Then play the rest of the verse as normal)

Chorus (x1)


REST

Fill
G|---------------------------------------------------------------|
D|---------------------------------------------------------------|
A|0--22--3--00--1------------------------------------------------|
E|---------------------------------------------------------------| (x2)

G|---------------------------------------------------------------|
D|---------------------------------------------------------------|
A|3--1--(4444)---------------------------------------------------|
E|---------------------------------------------------------------| (x2)

Chorus (x1)

G|---------------------------------------------------------------|
D|---------------------------------------------------------------|
A|0-0-0-0-0-0-0-0-0--------------------------------------------- |
E|---------------------------------------------------------------|


Fill (x3)

Fill
G|---------------------------------------------------------------|
D|---------------------------------------------------------------|
A|0--22--3--00--1---(4-4-4-4)Play last time around---------------|
E|---------------------------------------------------------------| (x2)


There are a few parts towards the end where the bass only plays one open note, and 
parts to the Fill but just listen to the song to figure it out.
Добавлено: 05.02.2014
Другие материалы по этой песне:
  • Аккорды и текст

Страница создана 05.02.2014
http://primanota.ru/mindless-self-indulgence/brooklyn-hype-chords.htm
Привет, Гость.
Предлагаем пройти революционный курс по гитаре.
Подарок от PrimaNota.Ru, забирай!