PrimaNota.ru - самый крупный в мире бесплатный архив песенных текстов, аккордов, табулатур и нот


Mac Demarco - Together Live - таба, видео

Регистрация Запомнить меня
Войти через:  Facebook Google Twitter Vk Yandex Mail.ru

Mac Demarco - Together Live - таба, видео

Печатать
Просмотров: 109
Уроки эстрадного вокала в Санкт-Петербурге
Mac DeMarco - Together (aka Still Together)
B-Side from The Wonderful World Of Mac DeMarco Singles Club #6.
Live session recorded at Part Time Punks studio in Los Angeles, CA.

Officially released by Captured Tracks in November 2014 (CT/SP-013).
Listen here: https://www.youtube.com/watch?v=rDPsZCNu_F8

Tabbed by Isaac Murguia, October 2015.
Originally uploaded to Ultimate-Guitar.com
Contact: www.youtube.com/user/Goadiroth

Tuned a quarter higher of standard.
CAPO on 2nd Fret. Tabbed relative to capo, except the solo.

/ = slide up
h = hammer on
p = pull off
. = palm mute
b = bend to next note
r = release bend to previous note
sb = slight bend

INTRO: (listen to song for strumming patterns)
e|-44--44--22--00--22--00--22--00--00-|
B|-55--44--22--00--22--00--22--00--00-|
G|-44--44--22--22--22--22--22--22--22-|
D|-66--44--22--11--22--11--22--11--11-|
A|-44--66--44--22--44--22--44--22--22-|
E|-----44--22------22------22---------| [x3]

VERSE:
               [x2]
e|-44--44--22--00--22--00--22--00--00-|-44--44--32--00--22--00--22--00--00-|
B|-55--44--22--00--22--00--22--00--00-|-55--44--32--00--22--00--22--00--00-|
G|-44--44--22--22--22--22--22--22--22-|-44--44--32--22--22--22--22--22--22-|
D|-66--44--22--11--22--11--22--11--11-|-66--44--32--11--22--11--22--11--11-|
A|-44--66--44--22--44--22--44--22--22-|-44--66--54--22--44--22--44--22--22-|
E|-----44--22------22------22---------|-----44--32------22------22---------|

e|-44--44--432--00--22--00--22--00--00--00-0-0-0-|
B|-55--44--432--00--22--00--22--00--00--00-0-0-0-|
G|-44--44--432--22--22--22--22--22--22--22-2-2-2-|
D|-66--44--432--11--22--11--22--11--11--11-1-1-1-|
A|-44--66--654--22--44--22--44--22--22--22-2-2-2-|
E|-----44--432------22------22-------------------|

CHORUS:
e|-0---0-0---0-0---0-0---0-0---0-0---0-0---0-0--|
B|-0---0-0---2-2---0-0---2-2---0-0---0-0---0-0--|
G|-1---2-2---2-2---2-2---2-2---2-2---1-1---1-1--|
D|-2---1-1---2-2---1-1---2-2---1-1---2-2---2-2--|
A|-2---2-2---0-0---2-2---0-0---2-2---2-2---2-2--|
E|-0---------------------------------0-0---0-0--| [x2]

Repeat VERSE
Repeat CHORUS [x4]

GUITAR SOLO: (no capo)
e|-----------------------------------------------|
B|-----------------------------------------------|
G|-----------------------------------------------|
D|---8-6-6---4-4-3--3-----4----3-----4-----------|
A|-6--------------------6---6------6------4--/16-|
E|-------------------------------------6---------|
   . . . .   . . .  .   . . .  .   . . .  . 

e|-------------------------------------------------------|
B|-------------------------------------------------------|
G|-------------------------------------------------------|
D|---8--6---6---4-4h6p4--3h4p3-----4----3h4p3-----4------|
A|-6-----------------------------6---6----------6------4-|
E|--------------------------------------------------6----|
   . .  .   .   . .              . . .          . . .  .

e|-----------------------------------------------------------|
B|-----------------------------------------------------------|
G|-----------------------------------6h8p6---6-h8---11b13r11-|
D|-----------3sb-------------4-6/8---------8-----------------|
A|-----4-6---------6p4---4-6---------------------------------|
E|-4/6-----------------6-------------------------------------|
                           . . .

e|-------------------------------------------------------|
B|-------------------------------------------------------|
G|-10--8----------8b9r8---6h8p6----------------6--8b10---|
D|-------11---8-----------------8-6-------6-8------------|
A|------------------------------------6/8----------------|
E|-------------------------------------------------------|

Repeat CHORUS [x4]

OUTRO:
e|-4---4-3-2---0---4-------0--|
B|-5---4-3-2---0---4---3---0--|
G|-4---4-3-2---2---4---2---1--|
D|-6---4-3-2---1---4---1---2--|
A|-4---6-5-4---2---6---3---2--|
E|-----4-3-2-------4---1---0--|

End. Please rate! :D
Добавлено: 31.03.2016
Другие материалы по этой песне:
  • Аккорды и текст

Страница создана 31.03.2016
http://primanota.ru/mac-demarco/together-live-chords.htm
Привет, Гость.
Предлагаем пройти революционный курс по гитаре.
Подарок от PrimaNota.Ru, забирай!