PrimaNota.ru - самый крупный в мире бесплатный архив песенных текстов, аккордов, табулатур и нот


Mac Demarco - Boe Zaah - таба, видео

Регистрация Запомнить меня
Войти через:  Facebook Google Twitter Vk Yandex Mail.ru

Mac Demarco - Boe Zaah - таба, видео

Печатать
Просмотров: 88
Capo on 3rd, Standard tuning (though Mac is always slightly out of tune)

**This is accurate, but you have to implement the chords repetitions, and this cannot be tabbed since Mac
is always modifying it as the song goes**

Main riff, just find the good rhythm to give it some groove. Mac is putting a lot of variations throughout
the song.

---------------------------------------
---------------------------------------
--------2--0--0--2---------------------
--2--4-----2---------------------------
--0--------0---------------------------
--0--------0---------------------------


Second riff, you can find the lead by yourself, it's easy.

--4--4--/--7--7--2--2/2-------------------------
--5--5--/--8--8--3--2/3-------------------------
--4--4--/--7--7--2--2/2-------Play a bit with the groove.
--6--6--/--9--9--4--2/4-------------------------
--4--4--/--7--7--2--2/2-------------------------
------------------------------------------------

Meanwhile, the lead:

---------------5--------------------------------
---2--5--7--5-----8--5-----7--7s5---------------
------------------------7-----------------------
------------------------------------------------
------------------------------------------------
------------------------------------------------

Third and last riff

--0--0--0--0-------------------------------
--0--0--0--0-------------------------------
--7--6--2--4-------------------------------
--9--7--2--5-------------------------------
--5--4--0--2-------------------------------
-------------------------------------------

The lead part:

------------------------------------------------
------------------------------------------------
--6--7--4--6--0--2--0--(0)4---------------------
------------------------------------------------
------------------------------------------------
------------------------------------------------


A lot of playing around there. The third chord x02200 rings wide open once from the highest note
to the lowest.
Listen to the song to get the groove once again.

If any of you has a question, you can get me on twitter at @sylvainmaretto
Cheers,

Добавлено: 31.03.2016
Вам также может быть интересно:
Другие материалы по этой песне:
  • Аккорды и текст

Страница создана 31.03.2016
http://primanota.ru/mac-demarco/boe-zaah-chords.htm
Привет, Гость.
Предлагаем пройти революционный курс по гитаре.
Подарок от PrimaNota.Ru, забирай!