PrimaNota.ru - самый крупный в мире бесплатный архив песенных текстов, аккордов, табулатур и нот


Lord Huron - The World Ender - аккорды и текст, видео

Регистрация Запомнить меня
Войти через:  Facebook Google Twitter Vk Yandex Mail.ru

Lord Huron - The World Ender - аккорды и текст, видео

Печатать
Просмотров: 94
Авторы: Ben Schneider

The World Ender
Lord Huron
Lord Huron
The World Ender
Strange Trails
matpage16@hotmail.com

   Gm   Cm   Dm

e--3----3----5-------------------------------------------------|
B--3----4----6-------------------------------------------------|
G--3----5----7-------------------------------------------------|
D--5----5----7-------------------------------------------------|
A--5----3----5-------------------------------------------------|
E--3----x----x-------------------------------------------------|


e--3-------------3--------------3-------------3---------------------------------|
B--3-------------3--------------4-------------3---------------------------------|
G--3-------------3--------------5-------------3---------------------------------|
D--5-------------5--------------5-------------5---------------------------------|
A--5-------------5--------------3-------------5---------------------------------|
E--3-------------3--------------x-------------3---------------------------------|

e--3-------------3--------------3-------------3---------------------------------|
B--3-------------3--------------4-------------3---------------------------------|
G--3----3----3---3----3-----3---5----3----3---3----3---3------------------------|
D--5--55-5--5-5--5--55--5--5-5--5--55-5--5-5--5--55-5-5-5-----------------------|
A--5-------------5--------------3-------------5---------------------------------|
E--3-------------3--------------x-------------3---------------------------------|


Woah!
e--3---33-----------3---33------------3---33-----------------------------|
B--3---33-----------3h4-44------------3---33-----------------------------|
G--3---33-----------3h5-55------------3---33-----------------------------|
D--3h5-55----x8-----3h5-55----x4------3h5-55----x4-----------------------|
A--3h5-55-----------3---33------------3h5-55-----------------------------|
E--3---33-----------x-----------------3---33-----------------------------|


Gm
I had a name but they took it from me
Gm
I was the man that I wanted to be
Cm
I had a place where I lay my head
Gm
They burnt it to the ground and the sky turned red
Gm
I had a life and a place in the world
Gm
I had a sweet talkin' wife and a beautiful girl
Cm
I know I'm never gonna see 'em again
Gm
Gonna tear the world up until I have my revenge

   Dm                       Cm                  Gm
   They took my life but it isn't the end. They put me in the ground but I'm back from 
the dead

e--5-------------------------3-------------------3-------------|
B--6-------------------------4-------------------3-------------|
G--7-------------------------5-------------------3-------------|
D--7-------------------------5-------------------5-------------|
A--5-------------------------3-------------------5-------------|
E--x-------------------------x-------------------3-------------|


e--3---33-----------3---33------------3---33-----------------------------|
B--3---33-----------3h4-44------------3---33-----------------------------|
G--3---33-----------3h5-55------------3---33-----------------------------|
D--3h5-55----x8-----3h5-55----x4------3h5-55----x4-----------------------|
A--3h5-55-----------3---33------------3h5-55-----------------------------|
E--3---33-----------x-----------------3---33-----------------------------|

        Gm
I'm the World Ender, baby, and I'm comin for you
     Gm
They put me in the ground but Im back from the dead
        Cm
I'm the World Ender, baby, and I'm coming for you
     Gm
They put me in the ground but I'm back from the dead


Gm
You'll hear me howl in the light of the moon
Gm
That's how you'll know that I'm coming for you
Cm
Gonna find you alone in the dark of night
Gm
When the World Ender comes better run for your life
Gm
I'll never bleed and I won't ever age
Gm
I'll never feel the embrace of the grave
Cm
The fair and the brave and the good must die
Gm
I seen the other side of living, I know heaven's a lie
Dm                                    Cm
I'll tear through the night, and I'll raise some hell
              Gm
Cause I'm the World Ender, baby and I'm back from the dead

Solo


e-----------------------------------------------------------|
B-----------------------------------------------------------|
G-----------------------------------------------------------|
D---3---33---3-53----3--------------------------------------|
A-----5----5------55---3---3-53-----------------------------|
E-----------------------6------63---------------------------|

Gm                     Cm
Lord knows I should be pushing daisies
Gm                     Cm
I was 6 feet down, but something raised me up
Gm                     Cm
Sent back for to lift my curse
Gm                     Cm
I'm gonna me a taste of some chaos first
Gm                     Cm
Untied, gonna get little wild
Gm                     Cm
Go screaming through the dark like a demon child
Gm                     Cm
Close your eyes now, the light is fading
Gm                     Cm
and the noise in the night is gonna get a little louder, baby


e--3---33-----------3---33------------3---33-----------------------------|
B--3---33-----------3h4-44------------3---33-----------------------------|
G--3---33-----------3h5-55------------3---33-----------------------------|
D--3h5-55----x8-----3h5-55----x4------3h5-55----x4-----------------------|
A--3h5-55-----------3---33------------3h5-55-----------------------------|
E--3---33-----------x-----------------3---33-----------------------------|


Gm
I'm the World Ender, baby, and I'm back from the grave
Gm
They can run for their lives but they cannot be saved
Cm
I'm the World Ender, baby, and I'm coming for them
Gm
They put me in the ground but I'm back from the dead

             Not sure how that last part is played.  I myself cannot hear any chords, it 
sounds like chanting.
This song can be played, much easier, with a Capo on 3.

Any requests?
Email me at Matpage16@hotmail.com
Добавлено: 06.11.2015
Другие материалы по этой песне:
  • Аккорды и текст

Страница создана 06.11.2015
http://primanota.ru/lord-huron/world-ender-chords.htm
Привет, Гость.
Предлагаем пройти революционный курс по гитаре.
Подарок от PrimaNota.Ru, забирай!