PrimaNota.ru - самый крупный в мире бесплатный архив песенных текстов, аккордов, табулатур и нот


Lord Huron - La Belle Fleur Sauvage - таба, видео

Регистрация Запомнить меня
Войти через:  Facebook Google Twitter Vk Yandex Mail.ru

Lord Huron - La Belle Fleur Sauvage - таба, видео

Печатать
Просмотров: 144
Уроки эстрадного вокала в Санкт-Петербурге
Авторы: Ben Schneider

Lord Huron
La Belle Fleur Sauvage 
Strange Trails
matpage16@hotmail.com

Capo 1

E----------0----------------------------------------|
A---2--2-2---2-2------------------------------------|
D------2-2---2-2------------------------------------|
G------1-1---1-1------------------------------------|
B------0-0---0-0------------------------------------|
e---------------------------------------------------|


           Capo 1
E                                A     E
What you're looking for won't be found easily
E                             A     E
It grows upon the mountain in a sacred place
E                                A            E
Up beyond the clouds, in ancient ground, so they say
E                               A       E
And many men have died trekking up thataway

A           E
Oooh        Oooh 

A           E
Oooh        Oooh

A           E
Oooh        Oooh


A    E     A    E
Ooh  Ooh   Ooh  Ooh


E------------4---4-2-2h4p2-0----------------------2--2h4p2-0-------------------|
A---2-4----42--2---------------------------------------------------------------|
D-------22---------------------------------------------------------------------|
G------------------------------------------------------------------------------|
B------------------------------------------------------------------------------|
e------------------------------------------------------------------------------|

E------------4---4-2-2h4p2-0----------------------2--2h4p2-0-------------------|
A---2-4----42--2---------------------------------------------------------------|
D-------22---------------------------------------------------------------------|
G------------------------------------------------------------------------------|
B------------------------------------------------------------------------------|
e------------------------------------------------------------------------------|

E                           A                     E
Once he's gazed upon her, a man is forever changed
E                                    A                  E
The bravest men return with darkened hearts and phantom pain
E                        A                 E
Ages come and go but her life goes on the same
E                                     A                  E
She lives to see the sun and feel the wind and drink the rain

E-----000220--------------------------------------|
A-------------------------------------------------|
D-------------------------------------------------|
G-------------------------------------------------|
B-------------------------------------------------|
e-------------------------------------------------|
A                             E
Her colors change to mark the passing of the days
A                             E
No Earthly sight can match the beauty she displays
A                             E   
And when I die I want her lying by my side
A     E
In my grave
A     E
In my grave  Ooooohh

E                            A     E   
I'd give it all to love that girl  Oooh

E------------4---4-2-2h4p2-0-----------------------2--2h4p2-0-------------------|
A---2-4----42--2----------------------------------------------------------------|
D-------22----------------------------------------------------------------------|
G-------------------------------------------------------------------------------|
B-------------------------------------------------------------------------------|
e-------------------------------------------------------------------------------|

E                          A       E
I'll be the one to pluck that fleur

E------------4---4-2-2h4p2-0-----------------------2--2h4p2-0-------------------|
A---2-4----42--2----------------------------------------------------------------|
D-------22----------------------------------------------------------------------|
G-------------------------------------------------------------------------------|
B-------------------------------------------------------------------------------|
e-------------------------------------------------------------------------------|

A                                E               A
I  meant to find the place where all good things begin
A                                E              A
To smell her scent and watch her dancing in the wind
A                         E           A
And when I die I want her lying by my side
A     E
In my grave
A     E
In my grave

(3:29-4:33
Back and forth between A and E picking the bass notes for this section)


                                I'd give it all to love that girl
E------------4---4-2-2h4p2-0-----------------------2--2h4p2-0-------------------|
A---2-4----42--2----------------------------------------------------------------|
D-------22----------------------------------------------------------------------|
G-------------------------------------------------------------------------------|
B-------------------------------------------------------------------------------|
e-------------------------------------------------------------------------------|


                                 I'll be the one to pluck that fleur
E------------4---4-2-2h4p2-0-----------------------2--2h4p2-0-------------------|
A---2-4----42--2----------------------------------------------------------------|
D-------22----------------------------------------------------------------------|
G-------------------------------------------------------------------------------|
B-------------------------------------------------------------------------------|
e-------------------------------------------------------------------------------|


                                I'd give it all to love that girl
E------------4---4-2-2h4p2-0-----------------------2--2h4p2-0-------------------|
A---2-4----42--2----------------------------------------------------------------|
D-------22----------------------------------------------------------------------|
G-------------------------------------------------------------------------------|
B-------------------------------------------------------------------------------|
e-------------------------------------------------------------------------------|


                                 I'll be the one to pluck that fleur
E------------4---4-2-2h4p2-0-----------------------2--2h4p2-0-------------------|
A---2-4----42--2----------------------------------------------------------------|
D-------22----------------------------------------------------------------------|
G-------------------------------------------------------------------------------|
B-------------------------------------------------------------------------------|
e-------------------------------------------------------------------------------|
Добавлено: 06.11.2015
Другие материалы по этой песне:
  • Аккорды и текст

Страница создана 06.11.2015
http://primanota.ru/lord-huron/la-belle-fleur-sauvage-chords.htm
Привет, Гость.
Предлагаем пройти революционный курс по гитаре.
Подарок от PrimaNota.Ru, забирай!