PrimaNota.ru - самый крупный в мире бесплатный архив песенных текстов, аккордов, табулатур и нот


Lord Huron - Louisa - таба, видео

Регистрация Запомнить меня
Войти через:  Facebook Google Twitter Vk Yandex Mail.ru

Lord Huron - Louisa - таба, видео

Печатать
Просмотров: 119
Авторы: Ben Schneider

-------------------------------------------------------------------------------
                             Louisa - Lord Huron
-------------------------------------------------------------------------------
Tabbed by: Fiachra

Couldn't find any tabs from LH's new album Strange Trails so decided to fix that.

Ben strums down on each chord letting every string sound out(don't know if there's a name for that),
 you'll hear it when you listen to the song.

The intro, hook, and chorus are all the exact same so once you get the hang of the verse progression it's
a pretty easy song to play.

Tuning: Standard

Intro:

Repeat x4

e|--7----3----5----3-------------------------------------------------------------|
B|--7----3----5----3-------------------------------------------------------------|
G|--7----4----6----4-------------------------------------------------------------|
D|--7----5----7----5-------------------------------------------------------------|
A|--5----5----7----5-------------------------------------------------------------|
E|--x----3----5----3-------------------------------------------------------------| 

Verse:

Repeat x2

e|--7----7----7----12---3---7---5---7-------------------------------------------------|
B|--7----8----7----12---3---7---5---7-------------------------------------------------|
G|--7----9----7----13---4---7---6---7-------------------------------------------------|
D|--7----9----9----14---5---9---7---9-------------------------------------------------|
A|--5----7----9----14---5---9---7---9-------------------------------------------------|
E|--x----7----7----12---3---7---5---7-------------------------------------------------|


Hook (same as intro):

Repeat x2

e|--7----3----5----3-------------------------------------------------------------|
B|--7----3----5----3-------------------------------------------------------------|
G|--7----4----6----4-------------------------------------------------------------|
D|--7----5----7----5-------------------------------------------------------------|
A|--5----5----7----5-------------------------------------------------------------|
E|--x----3----5----3-------------------------------------------------------------| 

Verse:

Repeat x2

e|--7----7----7----12---3---7---5---7-------------------------------------------------|
B|--7----8----7----12---3---7---5---7-------------------------------------------------|
G|--7----9----7----13---4---7---6---7-------------------------------------------------|
D|--7----9----9----14---5---9---7---9-------------------------------------------------|
A|--5----7----9----14---5---9---7---9-------------------------------------------------|
E|--x----7----7----12---3---7---5---7-------------------------------------------------|

Chorus:

Repeat x8

e|--7----3----5----3-------------------------------------------------------------|
B|--7----3----5----3-------------------------------------------------------------|
G|--7----4----6----4-------------------------------------------------------------|
D|--7----5----7----5-------------------------------------------------------------|
A|--5----5----7----5-------------------------------------------------------------|
E|--x----3----5----3-------------------------------------------------------------| 

Bridge: 

What I'm hearing for the bridge(when he sings 'I turn my back on the world..')
is these chords played until it runs back into the chorus

Repeat x2

e|--3----7---       --5---3---------------------------------------------------------------|
B|--3----7---       --5---3---------------------------------------------------------------|
G|--4----7---       --6---4---------------------------------------------------------------|
D|--5----7--- x3    --7---5---------------------------------------------------------------|
A|--5----5---       --7---5---------------------------------------------------------------|
E|--3----x---       --5---3---------------------------------------------------------------| 

'I may have died but your lovin raised me'


e|-------------------------------------------------------------------------------|
B|-------------------------------------------------------------------------------|
G|-------------------------------------------------------------------------------|
D|-------------------------------------------------------------------------------|
A|-------------------------------------------------------------------------------|
E|----2----3---------------------------------------------------------------------| 

then straight back into the chorus for the rest of the song

Добавлено: 06.11.2015
Другие материалы по этой песне:
  • Аккорды и текст

Страница создана 06.11.2015
http://primanota.ru/lord-huron/louisa-chords.htm
Привет, Гость.
Предлагаем пройти революционный курс по гитаре.
Подарок от PrimaNota.Ru, забирай!