PrimaNota.ru - самый крупный в мире бесплатный архив песенных текстов, аккордов, табулатур и нот


Lord Huron - Way Out There - аккорды и текст, таба, видео

Регистрация Запомнить меня
Войти через:  Facebook Google Twitter Vk Yandex Mail.ru

Lord Huron - Way Out There - аккорды и текст, таба, видео

Печатать
Просмотров: 94
Авторы: Ben Schneider

Way Out There
Lord Huron
Lord Huron - Way out There


Intro Riff:

e|----------0h2----------------------------------------------|
b|--------2-------------------2------------------------------|
g|------4------------2-4----4----------4-----------4----2-4--|
d|----4------------2------4--------5-----5-------5----2------|
a|--2----------2-0------2--------5---5-----5---5----0--------|
E|-----------------------------3-------------3---------------|

Bm                      A           Bm
I'm a long way from the land that I left
          G                                        A         
I've been running through life and cruising toward death
Bm                                  A      Bm 
If you think that I'm scared you've got me wrong
       G                                   A
If you don't know my name, you'll know it now
Bm              A          Bm
I belong bodily to the earth
         G                                      A
I'm just wearing old bones from those that came first
Bm                              A         Bm
There are many more flames when mine is gone
          G                                      (A) 
They will build me no shrines and sing me no songs

Break:

Bm   A   Bm     G     A  x2

Bm                      A            Bm
I'm a long way from the one that I loved
          G                                  A
I've been tending old flames, lamenting what was
Bm                 A         Bm
Drifting in a land time forgot
G                                            A
If you think that I've changed, you know me not
Bm              A         Bm
I belong bodily to the earth
         G                                      A
I'm just wearing old bones from those that came first
Bm                A          Bm
I been unraveling since my birth
      G                               A
Gonna wander out there and see what I'm worth


Bm              D
Find me way out there
           D                      G
there's no road that will lead us back
         Bm                 D
When you follow the strange trails
           D                 G
they will take you who knows where
Bm           D                    G
If I found a way to stay with you tonight
Bm        D                                      G
it would only make me late, for a date I can't escape


Bridge Guitar 1:

 e|----------------------------------------------------------------|
 b|---12-12-12-10----10----10/12------10-10-10-----10----10/12-----|
 g|---------------11----11-------11------------11-----11-------11--|
 d|----------------------------------------------------------------|
 a|----------------------------------------------------------------|
 E|----------------------------------------------------------------|

Bridge Guitar 2:                                                                     x2

e|-12/14-14-14-12----12----12/14----------------------------------|
b|----------------15----15-------12---15-15-15-12--15-12-15/17-12-|
g|----------------------------------------------------------------|
d|----------------------------------------------------------------|
a|----------------------------------------------------------------|
E|----------------------------------------------------------------|


Intro Riff x2


Bm              D
Find me way out there
           D                      G
there's no road that will lead us back
         Bm                 D
When you follow the strange trails
           D                 G
they will take you who knows where
Bm           D                    G
If I found a way to stay with you tonight
Bm        D                                      G
it would only make me late, for a date I can't escape


Intro Riff x2

End


Chords:

     Bm            A          G          D

e|--0--0--|    e|--0--|    |--0--|    |--0---|
b|--3--0--|    b|--2--|    |--0--|    |--0---|
g|--4--8--|    g|--2--|    |--4--|    |--11--|
d|--4--9--|    d|--2--|    |--5--|    |--12--|
a|--2--9--|    a|--0--|    |--5--|    |--12--|
E|--2--7--|    E|--0--|    |--3--|    |--10--|

The second chord for Bm is easier for the chorus
Добавлено: 06.11.2015
Другие материалы по этой песне:
  • Аккорды и текст

Страница создана 06.11.2015
http://primanota.ru/lord-huron/way-out-there-chords.htm
Привет, Гость.
Предлагаем пройти революционный курс по гитаре.
Подарок от PrimaNota.Ru, забирай!