PrimaNota.ru - самый крупный в мире бесплатный архив песенных текстов, аккордов, табулатур и нот


Litfiba - No Frontiere - текст песни, таба, видео

Регистрация Запомнить меня
Войти через:  Facebook Google Twitter Vk Yandex Mail.ru

Litfiba - No Frontiere - текст песни, таба, видео

Печатать
Просмотров: 114
		   --------
~~~~~~~~~~~~~~~~~~~~~~~~~~~~~~~~~~~~~~~~~~~~~~~~~~~~~~~~~~~~~~~~~~~~~
NO FRONTIERE (Intro: Davide Pari  letigri@usa.net>)
~~~~~~~~~~~~~~~~~~~~~~~~~~~~~~~~~~~~~~~~~~~~~~~~~~~~~~~~~~~~~~~~~~~~~


INTRO:

E||-------------------------|------------------------|----------------------
---|
B||--------0-------0--------|----2----------0--------|--------0-------0-----
---|
G||-------------------------|------------------------|----------------------
---|
D||-----4-----0----------2--|-------2--0-------0-----|-----4-----0----------
2--|
A||--2----------------2-----|---------------------0--|--2----------------2--
---|
E||-------------------------|------------------------|----------------------
---|



------------------------||
----2----------0--------||
------------------------||
-------2--0-------0-----||
---------------------0--||
------------------------||


D              E               Bm  A
Superato l'orizzonte dello specchio
D               E                 Bm  E
spedizione dirottata sul non ritorno
D                E                 Bm  A
nel vuoto apparente fra cielo e terra
D          E
verso le mani fonti della vi


     Bm                  A                   E
E||--7----------------|--5----------------|--0----------------|
B||-------------------|-------------------|-------------------|
G||-------------------|-------------------|-------------------|
D||-------------------|-------------------|-------------------|
A||-------------------|-------------------|-------------------|
E||-------------------|-------------------|-------------------|
     ta

                     Bm                  A
------------------|--7----------------|--5----------------|
------------------|-------------------|-------------------|
------------------|-------------------|-------------------|
------------------|-------------------|-------------------|
------------------|-------------------|-------------------|
------------------|-------------------|-------------------|


  E
--7--------7--8----10--|------------------||
-----------------------|------------------||
-----------------------|------------------||
-----------------------|------------------||
-----------------------|------------------||
-----------------------|------------------||


D                    E             Bm  E
Tra le stelle dell'orsa e del delfino
D               E                   Bm
c'è gente che vive amando ciò che ha
                              D
e non odiando ciò che non avrà
               E                  D
io scopro galassie col tuo profumo
             E               D            A
milioni di soli che danno fiori riti di pace e
E      Bm                E         Bm
No frontiere uh oh oh... no frontiere


   E                    Bm                      A
E||----------4~---6~---|--7~-------7~-7~-6~-5~-|----------0~---5~---|
B||--------------------|-----------------------|--------------------|
G||--------------------|-----------------------|--------------------|
D||--------------------|-----------------------|--------------------|
A||--------------------|-----------------------|--------------------|
E||--------------------|-----------------------|--------------------|
             No Front - iere      uh oh oh...             No front -

  E                                        Bm
--4~---------------|----------4~---6~---|--7~-------7~-7~-6~-5~-|
-------------------|--------------------|-----------------------|
-------------------|--------------------|-----------------------|
-------------------|--------------------|-----------------------|
-------------------|--------------------|-----------------------|
-------------------|--------------------|-----------------------|
tiere

  A                    E
----------0~---5~---|--4~---------5~---7~-|--7~---------------|
--------------------|---------------------|-------------------|
--------------------|---------------------|-------------------|
--------------------|---------------------|-------------------|
--------------------|---------------------|-------------------|
--------------------|---------------------|-------------------|


  D                     E                      Bm
---------------------|----------------------|-----5--7--5--7--5--7--5--|
---------------------|----------------------|-----5--6--5--6--5--6--5--|
------------------1--|----------2--1--------|--------------------------|
--3----------3----2--|----------------3--2--|--------------------------|
--5----------5-------|----------------------|--2-----------------------|
---------------------|----------------------|--------------------------|


                            D                     E
--7--5--7--5--7--5--7----|---------------------|--------------------|
--6--5--6--5--6--5--6----|---------------------|--------------------|
-------------------------|------------------1--|--------------------|
-------------------------|--3------------3--2--|--------------------|
-------------------------|--5------------5-----|------------0----0--|
-------------------------|---------------------|--------------------|


  Bm
----5--7--5--7--5--7--5--|--7--5--7--5--7--5--7----||
----5--6--5--6--5--6--5--|--6--5--6--5--6--5--6----||
-------------------------|-------------------------||
-------------------------|-------------------------||
-------------------------|-------------------------||
-------------------------|-------------------------||


Stessi elementi in forme differenti
più lontano dell'orsa e del delfino
ho visto pianeti dove non si scoppia
molte notti dentro il cielo a far l'amore
e scopro galassie col tuo profilo
milioni di soli che danno fiori riti di pace e
No frontiere uh oh oh... no frontiere
No frontiere uh oh oh... no frontiere


Milioni di soli che danno fiori riti di pace e
No frontiere uh oh oh... no frontiere
No frontiere uh oh oh... no frontiere
No frontiere uh oh oh


Spedizione dirottata sul non ritorno
incontrerò il mistero della vita


No frontiere uh oh oh... no frontiere uh oh oh
No frontiere...No frontiere...


--
________________________
W0lf

Litfiba : http://members.xoom.it/W0lf
w0lf@pmail.net

UIN:7091188




     
Добавлено: 01.10.2013
Другие материалы по этой песне:
  • Аккорды и текст

Страница создана 01.10.2013
http://primanota.ru/litfiba/no-frontiere-chords.htm
Привет, Гость.
Предлагаем пройти революционный курс по гитаре.
Подарок от PrimaNota.Ru, забирай!