PrimaNota.ru - самый крупный в мире бесплатный архив песенных текстов, аккордов, табулатур и нот


Litfiba - Elettrica - бас-таба, видео

Регистрация Запомнить меня
Войти через:  Facebook Google Twitter Vk Yandex Mail.ru

Litfiba - Elettrica - бас-таба, видео

Печатать
Просмотров: 76
-------------------------------------------------------------------------------
                             ELETTRICA - Litfiba
-------------------------------------------------------------------------------
Tabbed by: Nicko


Tuning: Standard




   "Elettricaaaa..."     Intro
G |--------------------|----------------------------|----------------------------|
D |--------------------|--------------------5-------|--------------------5-------|
A |--------------------|--7--7-----7--5--5-----5----|--3--3-----3--5--5-----5----|
E |--------------------|----------------------------|----------------------------|


----------------------------|----------------------------------------|
--------------------5-------|----------------------------------------|
--7--7-----7--5--5-----5----|--3--3-----3--5s------------------------|
----------------------------|----------------------------------------|

Verse
----------------------------|----------------------------|
----------------------------|----------------------------|
--7--7-----7--5--5--5-------|--3--3-----3--5--5-----5----|
----------------------------|----------------------------|


----------------------------|----------------------------|
----------------------------|----------------------------|
--7--7-----7--5--5--5-------|--3--3-----3--5--5-----5----|
----------------------------|----------------------------|



Pre Chorus ("salti su cavalchi sull'abisso un pò...")
----------------------------|----------------------------|
----------------------------|----------------------------|
--7--7--7--7--5--5--5--5----|--3--3--3--3--5--5--5--5----|
----------------------------|----------------------------|


----------------------------|----------------------------|
----------------------------|----------------------------|
--7--7--7--7--5--5--5--5----|--3--3--3--3--5--5--5--5----|
----------------------------|----------------------------|



Bridge ("ma le dimostrazioni...")
------------------------------------------------|
----------------------------------5-------------|
--7----7--------5--5--5-----5-------------------|
------------------------------------------------|


------------------------------------------|
------------------------------------------|
--3----3--------5--5--5-----5-----5-------|
------------------------------------------|


------------------------------------------------|
----------------------------------5-------------|
--7----7--------5--5--5-----5-------------------|
------------------------------------------------|


------------------------------------------|
------------------------------------------|
--3----3--------5--5--5-----5-----5-------|
------------------------------------------|



Chorus  ("truccati gli occhi e affronta le tue ombre...")
----------------------------------------------------|
----------------------------------------------------|
----------------------------------------------------|
--12----------12----12-12----12----12-12----12------|


----------------------------|
----------------------------|
----------------------------|
--10----10-10-3--3--3--3----|


----------------------------------------------------|
----------------------------------------------------|
----------------------------------------------------|
--12----------12----12-12----12----12-12----12------|


----------------------------|
----------------------------|
----------------------------|
--10----10-10-8--8--8--8----|

("dici di si...")
----------------------------------------------------------|
----------------------------------------------------------|
----------------------------------------------------------|
--12----12----10----12----------------12-10----10---------|

                              ("ora tu stai scatenando...")
----------------------------|----------------------------|----------------------------|
----------------------------|----------------------------|----------------------------|
----------------------------|--3--3--3--3--3--3--3--3----|--2--2--2--2--5--5--5--5----|
--10-10-10-10s3--3--3--3----|----------------------------|----------------------------|





Repeat Bridge and Chorus when needed





 Guitar Solos
|----------------------------|----------------------------
|--------5-----------7-------|--------5-----------7-------
|--7--7-----7--5--5-----5----|--3--3-----3--5--5-----5----
|----------------------------|----------------------------


----------------------------|----------------------------||
--------5-----------7-------|--------5-----------7-------||     repeat when needed
--7--7-----7--5--5-----5----|--3--3-----3--5--5-----5----||
----------------------------|----------------------------||




Outro
|----------------------------|----------------------------|
|--------------------5-------|--------------------5-------|
|--7--7-----7--5--5-----5----|--3--3-----3--5--5-----5----|
|----------------------------|----------------------------|


----------------------------|----------------------------------------|
--------------------5-------|---------------------5------------------|
--7--7-----7--5--5-----5----|--3--3-----3--5---5-----5---------------|
----------------------------|----------------------------------------|


----------------------------|----------------------------|
----------------------------|----------------------------|
--7--7-----7--5--5--5-------|--3--3-----3--5--5-----5----|
----------------------------|----------------------------|


----------------------------|-----------------------------|
----------------------------|--------------------5--------|
--7--7-----7--5--5--5-------|--3--3-----3--5--5-----5---7-|
----------------------------|-----------------------------|
Добавлено: 02.09.2013
Другие материалы по этой песне:
  • Аккорды и текст

Страница создана 02.09.2013
http://primanota.ru/litfiba/elettrica-chords.htm
Привет, Гость.
Предлагаем пройти революционный курс по гитаре.
Подарок от PrimaNota.Ru, забирай!