PrimaNota.ru - самый крупный в мире бесплатный архив песенных текстов, аккордов, табулатур и нот


Litfiba - Dall'alba Al Tramonto - аккорды и текст, видео

Регистрация Запомнить меня
Войти через:  Facebook Google Twitter Vk Yandex Mail.ru

Litfiba - Dall'alba Al Tramonto - аккорды и текст, видео

Печатать
Просмотров: 112
Уроки эстрадного вокала в Санкт-Петербурге
Dall'alba Al Tramonto
Litfiba
		   --------

Ricevo in e-mail e riposto:
------------
Da: federico   capitanfede@hotmail.com>
Data: martedi 1 febbraio 2000


Questa è sicuramente la canzone più bella del nuovo album e spero di
averla 
trascritta bene.



DALL'ALBA AL TRAMONTO
Album: Eletttromacumba
LITFIBA

Intro: Em  D  A La4


|--------------------------------------------------------------
|-8-8-8-8-7---------------8-7----------------------------------
|-----------7--7-7-7---9-----9-7----7-9------------------------
|--------------------9------------9----------------------------
|--------------------------------------------------------------
|--------------------------------------------------------------


|--------------------------------------------------------------
|-8-8-8-8-7---------------8-7-8-10/12\10-8---------------------
|-----------7--7-7-7---9-------------------9-------------------
|--------------------9-----------------------------------------
|--------------------------------------------------------------
|--------------------------------------------------------------


Em          D
Cercando strade,
   A              La4
tra ignoranza e realtà


|------------------------
|---------------8-7------
|-7-7-7-7-7-7-9-----9----
|------------------------
|------------------------
|------------------------


Em          D
sospeso in volo,
A              La4
con grande abilità


|------------------------
|-8-7--------------------
|-----9-7---7-9----------
|---------9--------------
|------------------------
|------------------------

Em          D
esploro mondi,
A              La4
alla ricerca di me

|------------------------
|---------------8-7------
|-7-7-7-7-7-7-9-----9----
|------------------------
|------------------------
|------------------------

Em          D
solo ai comandi,
A              La4
straniero in ogni città



Ora è tempo,di capire,
cio che ho dentro
ora è tempo,di cercare,
ciò che ho perso


Oltre il confine
c'è chi si perderà
oltre il confine
c'è chi ce la farà


E finalmente solo,
col tuo coraggio in volo
e ti ritroverai
sarai davvero solo,
senza più guide in volo
senza rimpianti mai


|------------------------------------------------
|-8-8-8-8-7-----------------------------8-7------
|-----------7--7-7-7---9--7-7-7-7-7-7-9-----9----
|--------------------9---------------------------
|------------------------------------------------
|------------------------------------------------


E cerco i sogni,
nel labirinto dei se
parando i colpi,
delle paure che ho

|------------------------
|---------------8-7------
|-7-7-7-7-7-7-9-----9----
|------------------------
|------------------------
|------------------------


Ora è tempo,di capire,
cio che ho dentro
ora è tempo,di cercare,
ciò che ho perso


Oltre il confine
c'è chi si perderà
oltre il confine
c'è chi ce la farà


E non sarai più solo,
c'è chi ti ha visto in volo
e che ti seguirà
ti dico non sei solo,
muoviti attento in volo
senza girarti mai

Fine:


|--------------------------------------------------------------
|-8-8-8-8-7---------------8-7----------------------------------
|-----------7--7-7-7---9-----9-7----7-9------------------------
|--------------------9------------9----------------------------
|--------------------------------------------------------------
|--------------------------------------------------------------


|--------------------------------------------------------------
|-8-8-8-8-7---------------8-7-8-10/12\10-8---------------------
|-----------7--7-7-7---9-------------------9-------------------
|--------------------9-----------------------------------------
|--------------------------------------------------------------
|--------------------------------------------------------------


|---------------------------------------------------------------
|-12-10-8-10/12----12-10-8-10/12-8---15-15-15-12-10-------------
|---------------------------------------------------------------
|---------------------------------------------------------------
|---------------------------------------------------------------
|---------------------------------------------------------------

|---------------------------------------------------------------
|-15-15-15-15-12-10----15-12-15-12-17---------------------------
|---------------------------------------------------------------
|---------------------------------------------------------------
|---------------------------------------------------------------
|---------------------------------------------------------------


----------------
Fabfab
fabfab@poboxes.com
icq 21423517

AMOSfree
Archivio di IAMS (it.arti.musica.spartiti)
http://get.to/amosfree

     
Добавлено: 21.07.2013
Другие материалы по этой песне:
  • Аккорды и текст

Страница создана 21.07.2013
http://primanota.ru/litfiba/dallalba-al-tramonto-chords.htm
Привет, Гость.
Предлагаем пройти революционный курс по гитаре.
Подарок от PrimaNota.Ru, забирай!