PrimaNota.ru - самый крупный в мире бесплатный архив песенных текстов, аккордов, табулатур и нот


Litfiba - Woda Woda - таба, видео

Регистрация Запомнить меня
Войти через:  Facebook Google Twitter Vk Yandex Mail.ru

Litfiba - Woda Woda - таба, видео

Печатать
Просмотров: 170
-------------------------------------------------------------------------------
                             WODA WODA - Litfiba
-------------------------------------------------------------------------------
Tabbed by: Federico Vittorio Lupo
E-mail:federicovittoriolupo[at]gmail.com
Tuning:Standard (EADGBe)
Album: El Diablo

If you find an error, please contact me. / Se trovate un errore, contattatemi.
I hope you enjoy! / Spero che vi piaccia!


************************************
| h   hammer-on
| p   pull-off
| b   bending
************************************

Intro

RIFF 1
e|---8-10-/5------5--|---8-10-/5--------------------|
B|-8----------8-6----|-8----------8h10p8--6-5-------|
G|-------------------|-----------------------7-5-7--|
D|-------------------|------------------------------|
A|-------------------|------------------------------|
E|-------------------|------------------------------|

Woda woda, woda woda
Woda woda, woda woda
Woda woda dalle mani
Scivolata via
Senza odore né colore
L'eco del suo nome
RIFF 2
e|---8-10-/5------5--|---8-10-/5--------------------|
B|-8----------8-6----|-8----------8h10p8-6----------|
G|-------------------|---------------------7--------|
D|-------------------|------------------------------|
A|-------------------|------------------------------|
E|-------------------|------------------------------|

1000 bocche 1000 mani
Schiave di razza
Aggrappate ad una goccia
Di elemosina

RIFF 3
With distortion/Con distorsione
e|----------------|
B|----------------|
G|----------------|
D|------5-7-8-7---|
A|-5-8------------|
E|----------------|

Non serve pagare

*Repeat Riff 3/Ripeti Riff 3*

La pelle fa male

Ruba ruba l'uomo bianco
Se ne è andato via
Ma san Pietro nel deserto
La sua malattia

*Repeat Riff 3/Ripeti Riff 3*

Non serve guardare

*Repeat Riff 3/Ripeti Riff 3*

La gola di sale

*Repeat Riff 3/Ripeti Riff 3*

No non sei tu a pagare

*Repeat Riff 3/Ripeti Riff 3*

La pelle fa male

*Instr*

RIFF 4
e|-12/--15/--17/---20-22--|
B|------------------------|
G|------------------------|
D|------------------------|
A|------------------------|
E|------------------------|

Woda woda, woda

RIFF 5
e|----------------------------------10--|--------------------------------------|
B|-13-12b13-12--12b13-12--10-12--13-----|---13-13-13-13-12-12-12---------------|
G|--------------------------------------|--------------------------------------|
D|--------------------------------------|--------------------------------------|
A|--------------------------------------|--------------------------------------|
E|--------------------------------------|--------------------------------------|

RIFF 6
e|-10--------------------------------------------|
B|----13-12h13-12-10-----------------------------|
G|-------------------12-10h12-10--12-14---12-10--|
D|-----------------------------------------------|
A|-----------------------------------------------|
E|-----------------------------------------------|

RIFF 7
e|--------------------------11b13-11b13-11b13-11-----11b13-15b17-15--|
B|----10-12-10-12-13-13-13------------------------13-----------------|
G|-12----------------------------------------------------------------|
D|-------------------------------------------------------------------|
A|-------------------------------------------------------------------|
E|-------------------------------------------------------------------|

RIFF 8
e|----------------|
B|----------------|
G|----------------|
D|------7-9-10-9--|
A|-7-10-----------|
E|----------------|

Non serve pagare

*Repeat Riff 8/Ripeti Riff 8*
La rabbia e la fame

*Repeat Riff 8/Ripeti Riff 8*
Non serve pregare

*Repeat Riff 8/Ripeti Riff 8*
La pelle fa male

  Woda woda silenziosa scivolata via  
e|-----------------------------------|
B|-----------------------------------|
G|-----------------------------------|
D|-9-10-9-10--7-9-7-9-----7----7-----|
A|---------------------10---10----7--|
E|-----------------------------------|

  Woda woda   sei preziosa
e|-----------------------------------|
B|-----------------------------------|
G|-----------------------------------|
D|-9-10-9-10--7-9-7-9-----7----7-----|
A|---------------------10---10----7--|
E|-----------------------------------|

OUTRO*In the outro you can jam a bit/Nell'outro potete improvvisare un po'*
RIFF 9
e|------------------|*2
B|---------10-------|
G|-9-11-12----12-9--|
D|------------------|
A|------------------|
E|------------------|

RIFF 10
e|---------------------15h17p15-15h17p15-15h17p15-15h17p15--15-17-17b19-17-15-12-12b15-----|
B|---------10-12--15-----------------------------------------------------------------------|
G|-9-11-12---------------------------------------------------------------------------------|
D|-----------------------------------------------------------------------------------------|
A|-----------------------------------------------------------------------------------------|
E|-----------------------------------------------------------------------------------------|

RIFF 11
e|-10-------------------|----------------------|
B|----13-12-12p10-------|----------------------|
G|----------------12-9--|----9-12-13-12-9------|
D|----------------------|-12-------------------|
A|----------------------|----------------------|
E|----------------------|----------------------|

END/FINE
Добавлено: 12.10.2013
Другие материалы по этой песне:
  • Аккорды и текст

Страница создана 12.10.2013
http://primanota.ru/litfiba/woda-woda-2-chords.htm
Привет, Гость.
Предлагаем пройти революционный курс по гитаре.
Подарок от PrimaNota.Ru, забирай!