PrimaNota.ru - самый крупный в мире бесплатный архив песенных текстов, аккордов, табулатур и нот


Litfiba - Lo Squalo - таба, видео

Регистрация Запомнить меня
Войти через:  Facebook Google Twitter Vk Yandex Mail.ru

Litfiba - Lo Squalo - таба, видео

Печатать
Просмотров: 99
LITFIBA - LO SQUALO - GRANDE NAZIONE
By Tiz/hell'sfire666

e|----------------------------|
B|----------------------------|
G|----------------------------|
D|-----------------2-2-4-5b-0-|  x3
A|-2--4-2-4-2-4-2-------------|
E|-0--3-0-3-0-3-0-------------| 

DO - RE


Strofa

MIm - SOL - LA - DO - RE
                             X2
MIm - SOL - DO - SI

PRE RITORNELLO : DO - RE

RITORNELLO

MIm - DO - RE

OUTRO

MI - RE - LA - SI - RE

SOLO:

e|--------------------------------------------------------------------|
B|--------------------------------------------------------------------|
G|---------------------------------------------7---7-9-9br-9-7--------|
D|-------------2-0---0---------------------7-9---9-------------9-7----|
A|------0-0-2------2----2-0--------0-0-2------------------------------|
E|-0--3-----------------------0--3------------------------------------|

e|-------------------------------------------------------------|
B|-------------------------------------------------------7-----|
G|----------------------------------------7-9b-7-9b-7-9b---9-7-|
D|-------------2-0---0-----------------------------------------|
A|------0-0-2------2----2-0--------0-0-2-----------------------|
E|-0--3-----------------------0--3-----------------------------|

B|---------------------12--------15b-15-12-------------------------------------|
G|-14-14-12---14-12-14----14-12------------------12----12-14-14b-14-12---------|
D|-----------------------------------------12-14----14-----------------14-12-14|
A|-----------------------------------------------------------------------------|
E|-----------------------------------------------------------------------------|

e|-------------------------------------------------------------------------------------------|
B|-------------------------------------------------------------------------------------------|
G|-14-14-12---------12----12-14-14b16r14-14-12-----------------------------------------------|
D|------------12-14----14----------------------14-12-14---12----12---------------------12-14-|
A|-----------------------------------------------------------14----14-12-14--14--12-14-------|
E|-------------------------------------------------------------------------------------------|

e|----------------------------------------------------------------------------------------------|
B|----------------------------------------------------------------------------------------------|
G|-----7---7-9b-7---------7---7-9b-9b-9b-9b-9r---7-9-7-------------7-9----7-7-9-----7--7-9b-9-7-|
D|-7-9---9------------7-9---9--------------------------9-7-9-9-7-9---------9----7-9--9----------|
A|----------------------------------------------------------------------------------------------|
E|----------------------------------------------------------------------------------------------|

e|-------------------|
B|-10-8---8-10---10b-|
G|------9------------|
D|-------------------|
A|-------------------|
E|-------------------|



SCHEMA:
INTRO X3   + DO RE
STROFA X2
INTRO X2
STROFA X2
PRE RIT
RITORNELLO X3
OUTRO
STROFA X3
INTRO X1.5 + DO RE
SOLO (MIm DO RE X6)
RITORNELLO X3
OUTRO X2
MIm


Добавлено: 18.10.2013
Другие материалы по этой песне:
  • Аккорды и текст

Страница создана 18.10.2013
http://primanota.ru/litfiba/lo-squalo-chords.htm
Привет, Гость.
Предлагаем пройти революционный курс по гитаре.
Подарок от PrimaNota.Ru, забирай!