PrimaNota.ru - самый крупный в мире бесплатный архив песенных текстов, аккордов, табулатур и нот


Lamb Of God - The Undertow - текст песни, таба, видео

Регистрация Запомнить меня
Войти через:  Facebook Google Twitter Vk Yandex Mail.ru

Lamb Of God - The Undertow - текст песни, таба, видео

Печатать
Просмотров: 115
----------------------------------------------------------------------------
                              The Undertow
                               Lamb of God
----------------------------------------------------------------------------

Finally the new Lamb of God album has come out, and I've got to say... I'm in awe. I 
love almost all, if not all, of the songs. For some reason I felt The Undertow had the best 
guitar riffs out of all of them. Still, the rest are impressive. Enjoy!

Username: dkm817 (same on X box live)
Youtube Cover: http://www.youtube.com/watch?v=OLxVSAsigqk
Email: guitardrums@rockfan.com

Guitar 1 Rhythmic (D A D G B E)
Guitar 2 Lead     (D A D G B E)
Guitar 3 Mixed    (D A D G B E)

Tab Guide...
==================================================================
(end of measures)

==================================================================
==================================================================
(end of parts)

==================================================================
==================================================================
==================================================================
(end of song)

(If there is a “continued” it is because the numbers could not
fit on 1 line.)


Intro

Guitar 1
E-----------------------------|
B-----------------------------|
G-----------------------------|
D---------6---6h7p6-----5-----|
A-5---8--------------6-----8--|
D-----------------------------|

==================================================================

Guitar 1 & 2
E-----------------------------------------------------------------|
B-----------------------------------------------------------------|
G-----------------------------------------------------------------|
D-----------------------------------------------------------------|
A-------------------------------------5-----------3-------2-------|
D-3---0---0---0---0---3---0---3---0-------3---6-------5-------3---|

==================================================================

Guitar 1 & 2
E-----------------------------------------------------------------|
B-----------------------------------------------------------------|
G-----------------------------------------------------------------|
D-6-----------6---5-------4-------------------6---6h7p6-----5-----|
A---------------------6-------3-------5---8--------------6-----8--|
D-----0---0-----------------------0-------------------------------|
pm    .   .                       .

==================================================================

Guitar 1 & 2
E-----------------------------------------------------------------|
B-----------------------------------------------------------------|
G-----------------------------------------------------------------|
D-----------------------------------------------------------------|
A-----------------------------------------5-------3---------------|
D-3---0---0---0---0---3---0---3---0---6-------3-------3---6---2---|

==================================================================

Guitar 1 & 2
E-----------------------------------------------------------------|
B-----------------------------------------------------------------|
G-----------------------------------------------------------------|
D-0---3---3---3---3---5---5---6---------------6---6h7p6-----5-----|
A-0---3---3---3---3---5---5---6-------5---8--------------6-----8--|
D-0---3---3---3---3---5---5---6-----------------------------------|
pm.

==================================================================

Guitar 1 & 2
E-----------------------------------------------------------------|
B-----------------------------------------------------------------|
G-----------------------------------------------------------------|
D-----------------------------------------------------------------|
A-------------------------------------5-----------3-------2-------|
D-3---0---0---0---0---3---0---3---0-------3---6-------5-------3---|

==================================================================

Guitar 1 & 2
E-----------------------------------------------------------------|
B-----------------------------------------------------------------|
G-----------------------------------------------------------------|
D-6-----------6---5-------4-------------------6---6h7p6-----5-----|
A---------------------6-------3-------5---8--------------6-----8--|
D-----0---0-----------------------0-------------------------------|
pm    .   .                       .

==================================================================

Guitar 1 & 2
E-----------------------------------------------------------------|
B-----------------------------------------------------------------|
G-----------------------------------------------------------------|
D-----------------------------------------------------------------|
A-----------------------------------------5-------3---------------|
D-3---0---0---0---0---3---0---3---0---6-------3-------3---6---2---|

==================================================================


Guitar 1 & 2
E-----------------------------------------------------------------|
B-----------------------------------------------------------------|
G---------------------------------5---------------6-----------8---|
D-0---3---3---3---3---5---5---6---5---4---3---0---6---6---4---8---|
A-0---3---3---3---3---5---5---6---3---4---3---0---4---6---4---6---|
D-0---3---3---3---3---5---5---6-------4---3---0-------6---4-------|
Pm.                                   .   .   .       .   .

==================================================================
==================================================================


Break Off 1

Guitar 1
E-----------------------------------------------------------------|
B-----------------------------------------------------------------|
G-------------------------------------5---------------6-------8---|
D-0---0---0---0---0---0---0---0---0---5---4---3---0---6---4---8---|
A-0---0---0---0---0---0---0---0---0---3---4---3---0---4---4---6---|
D-0---0---0---0---0---0---0---0---0-------4---3---0-------4-------|
Pm.   .   .   .   .   .   .   .   .               .

==================================================================
==================================================================


Verse 1

(x2)

Guitar 1 & 2 (x3)
E-----------------------------------------------------------------|
B-----------------------------------------------------------------|
G-------------------------------------5---------------6-------8---|
D-0---0---0---0---0---0---0---0---0---5---4---3---0---6---4---8---|
A-0---0---0---0---0---0---0---0---0---3---4---3---0---4---4---6---|
D-0---0---0---0---0---0---0---0---0-------4---3---0-------4-------|
pm.   .   .   .   .   .   .   .   .               .

==================================================================

Guitar 1 & 2
E-----------------------------------------------------------------|
B-----------------------------------------------------------------|
G-------------------------------------5---------------6-------8---|
D-2---2---2---2---2---2---2---2---2---5---4---3---0---6---4---8---|
A-2---2---2---2---2---2---2---2---2---3---4---3---0---4---4---6---|
D-2---2---2---2---2---2---2---2---2-------4---3---0-------4-------|
pm.   .   .   .   .   .   .   .   .               .

==================================================================
==================================================================


Pre Chorus 1

Guitar 1 & 2
E-----------------------------------------------------------------|
B-----------------------------------------------------------------|
G-7---7---7---7---7---7---7---7---7---7---7---7---7---------------|
D-7---7---7---7---7---7---7---7---7---7---7---7---7---------------|
A-5---5---5---5---5---5---5---5---5---5---5---5---5---5-------8---|
D---------------------------------------------------------6-------|

==================================================================

Guitar 1 & 2
E-----------------------------------------------------------------|
B-----------------------------------------------------------------|
G-----------------------------------------------------------------|
D-----------------------------------------------------5---3---0---|
A-8---8---8---8---8---8---5---7---7---7---7---7---7---5---3---0---|
D-5---5---5---5---5---------------3---3---3---3---3---5---3---0---|

==================================================================

Guitar 1
E-----------------------------------------------------------------|
B-----------------------------------------------------------------|
G-----------------------------------------------------------------|
D-1---1---1---1---1---------------------------6---6h7p6-----5-----|
A-3---3---3---3---3-------------------5---8--------------6-----8--|
D-1---1---1---1---1---4---3---1-----------------------------------|

Guitar 2
E-----------------------------------------------------------------|
B-----------------------------------------------------------------|
G-----------------------------------------------------------------|
D-1---1---1---1---1-----------------------------------------------|
A-3---3---3---3---3-----------------------------------------------|
D-1---1---1---1---1---4---3---1-----------------------------------|

==================================================================
==================================================================


Chorus

(x2)

Guitar 1 & 2
E-----------------------------------------------------------------|
B-----------------------------------------------------------------|
G-----------------------------------------------------------------|
D-----------------------------------------------------------------|
A-------------------------------------5---------------------------|
D-3---0---0---0---0---3---0---3---0-------0---0---0---0---0---0---|

==================================================================

Guitar 1 & 2
E-----------------------------------------------------------------|
B-----------------------------------------------------------------|
G-----------------------------------------------------------------|
D---------------------------------6-----------6---5-------4-------|
A-----------------------------------------------------6-------3---|
D-3---0---0---0---0---3---0---3-------0---0-----------------------|
Pm                                    .   .

==================================================================

Guitar 1 & 2
E-----------------------------------------------------------------|
B-----------------------------------------------------------------|
G-----------------------------------------------------------------|
D-----------------------------------------------------------------|
A-------------------------------------5---------------------------|
D-3---0---0---0---0---3---0---3---0-------0---0---0---1---6---1---|

==================================================================

Guitar 1 & 2
E-----------------------------------------------------------------|
B-----------------------------------------------------------------|
G-------------------------------------5---5---5---5---------------|
D-0---3---3---3---3---5---5---6-------5---5---5---5---5---6---3---|
A-0---3---3---3---3---5---5---6-------3---3---3---3---5---6---3---|
D-0---3---3---3---3---5---5---6-----------------------5---6---3---|
pm.

==================================================================
==================================================================


Bridge 1

Guitar 1 & 2
E-----------------------------------------------------------------|
B-----------------------------------------------------------------|
G-----------------------------------------------------------------|
D-0-0-0---0-0-0-------0-0-0-------0-0-0---0-0-0-------0-0-0-------|
A-0-0-0---0-0-0---5~~-0-0-0---6~~-0-0-0---0-0-0---5~~-0-0-0---6~~-|
D-0-0-0---0-0-0---3~~-0-0-0---5~~-0-0-0---0-0-0---3~~-0-0-0---5~~-|
Pm. . .   . . .       . . .       . . .   . . .       . . .

==================================================================

Guitar 1 & 2
E-----------------------------------------------------------------|
B-----------------------------------------------------------------|
G-----------------------------------------------------------------|
D-0-0-0---0-0-0-------0-0-0-------0-------------------------------|
A-0-0-0---0-0-0---5~~-0-0-0---6~~-0-------------------------------|
D-0-0-0---0-0-0---3~~-0-0-0---5~~-0-------------------------------|
Pm. . .   . . .       . . .

==================================================================
==================================================================


Verse 2

Guitar 1 & 2 (x3)
E-----------------------------------------------------------------|
B-----------------------------------------------------------------|
G-------------------------------------5---------------6-------8---|
D-0---0---0---0---0---0---0---0---0---5---4---3---0---6---4---8---|
A-0---0---0---0---0---0---0---0---0---3---4---3---0---4---4---6---|
D-0---0---0---0---0---0---0---0---0-------4---3---0-------4-------|
pm.   .   .   .   .   .   .   .   .               .

==================================================================

Guitar 1 & 2
E-----------------------------------------------------------------|
B-----------------------------------------------------------------|
G-------------------------------------5---------------6-------8---|
D-2---2---2---2---2---2---2---2---2---5---4---3---0---6---4---8---|
A-2---2---2---2---2---2---2---2---2---3---4---3---0---4---4---6---|
D-2---2---2---2---2---2---2---2---2-------4---3---0-------4-------|
pm.   .   .   .   .   .   .   .   .               .

==================================================================
==================================================================


Verse 3

(x2)

Guitar 1 & 2
E-----------------------------------------------------------------|
B-----------------------------------------------------------------|
G-----------------------------------------------------------------|
D-8-------------------8---5---8---7-------------------------------|
A-----------------------------------------------------10--6---10--|
D-----0---0---0---0-------------------0---0---0---0---------------|
Pm    .   .   .   .                   .   .   .   .

==================================================================

Guitar 1 & 2
E-----------------------------------------------------------------|
B-----------------------------------------------------------------|
G-----------------------------------------------------------------|
D-----------------------------------------------------------------|
A-9-------------------6---3---6-------------------5---------------|
D-----0---0---0---0---------------5---6---5---6-------6---5---6---|
Pm    .   .   .   .

==================================================================

Guitar 1 & 2
E-----------------------------------------------------------------|
B-----------------------------------------------------------------|
G-----------------------------------------------------------------|
D-8-------------------8---5---8---7-------------------------------|
A-----------------------------------------------------10--6---10--|
D-----0---0---0---0-------------------0---0---0---0---------------|
Pm    .   .   .   .                   .   .   .   .

==================================================================

Guitar 1
E-----------------------------------------------------------------|
B-----------------------------------------------------------------|
G-----------------------------------------------------------------|
D-----------------------------------------------------------------|
A-9-------------------6---3---6---------------------------5*~~~~~-|
D-----0---0---0---0---------------3---6---6---3---6---6-----------|
Pm    .   .   .   .

Guitar 2
E-----------------------------------------------------------------|
B-----------------------------------------------------------------|
G-----------------------------------------------------------------|
D-----------------------------------------------------------------|
A-9-------------------6---3---6---------------------------7*~~~~~-|
D-----0---0---0---0---------------3---6---6---3---6---6-----------|
Pm    .   .   .   .

==================================================================
==================================================================


Pre Chorus 2

Guitar 1 & 2
E-----------------------------------------------------------------|
B-----------------------------------------------------------------|
G-7---7---7---7---7---7---7---7---7---7---7---7---7---------------|
D-7---7---7---7---7---7---7---7---7---7---7---7---7---------------|
A-5---5---5---5---5---5---5---5---5---5---5---5---5---5-------8---|
D---------------------------------------------------------6-------|

==================================================================

Guitar 1 & 2
E-----------------------------------------------------------------|
B-----------------------------------------------------------------|
G-----------------------------------------------------------------|
D-----------------------------------------------------5---3---0---|
A-8---8---8---8---8---8---5---7---7---7---7---7---7---5---3---0---|
D-5---5---5---5---5---------------3---3---3---3---3---5---3---0---|

==================================================================

Guitar 1 & 2
E-----------------------------------------------------------------|
B-----------------------------------------------------------------|
G-----------------------------------------------------------------|
D-1---1---1---1---1---------------3---3---3---3-------------------|
A-3---3---3---3---3---------------3---3---3---3-------------------|
D-1---1---1---1---1---4---3---1---3---3---3---3---3-5~b~r-3-5~b~r-|

==================================================================

Guitar 1 & 2
E-----------------------------------------------------------------|
B-----------------------------------------------------------------|
G-7---7---7---7---7---7---7---7---7---7---7---7---7---------------|
D-7---7---7---7---7---7---7---7---7---7---7---7---7---------------|
A-5---5---5---5---5---5---5---5---5---5---5---5---5---5-------8---|
D---------------------------------------------------------6-------|

==================================================================

Guitar 1 & 2
E-----------------------------------------------------------------|
B-----------------------------------------------------------------|
G-----------------------------------------------------------------|
D-----------------------------------------------------5---3---0---|
A-8---8---8---8---8---8---5---7---7---7---7---7---7---5---3---0---|
D-5---5---5---5---5---------------3---3---3---3---3---5---3---0---|

==================================================================

Guitar 1
E-----------------------------------------------------------------|
B-----------------------------------------------------------------|
G-----------------------------------------------------------------|
D-1---1---1---1---1---------------------------6---6h7p6-----5-----|
A-3---3---3---3---3-------------------5---8--------------6-----8--|
D-1---1---1---1---1---4---3---1-----------------------------------|

Guitar 2
E-----------------------------------------------------------------|
B-----------------------------------------------------------------|
G-----------------------------------------------------------------|
D-1---1---1---1---1-----------------------------------------------|
A-3---3---3---3---3-----------------------------------------------|
D-1---1---1---1---1---4---3---1-----------------------------------|

==================================================================
==================================================================


Chorus

(x2)

Guitar 1 & 2
E-----------------------------------------------------------------|
B-----------------------------------------------------------------|
G-----------------------------------------------------------------|
D-----------------------------------------------------------------|
A-------------------------------------5---------------------------|
D-3---0---0---0---0---3---0---3---0-------0---0---0---0---0---0---|

==================================================================

Guitar 1 & 2
E-----------------------------------------------------------------|
B-----------------------------------------------------------------|
G-----------------------------------------------------------------|
D---------------------------------6-----------6---5-------4-------|
A-----------------------------------------------------6-------3---|
D-3---0---0---0---0---3---0---3-------0---0-----------------------|
Pm                                    .   .

==================================================================

Guitar 1 & 2
E-----------------------------------------------------------------|
B-----------------------------------------------------------------|
G-----------------------------------------------------------------|
D-----------------------------------------------------------------|
A-------------------------------------5---------------------------|
D-3---0---0---0---0---3---0---3---0-------0---0---0---1---6---1---|

==================================================================

Guitar 1 & 2
E-----------------------------------------------------------------|
B-----------------------------------------------------------------|
G-------------------------------------5---5---5---5---------------|
D-0---3---3---3---3---5---5---6-------5---5---5---5---5---6---3---|
A-0---3---3---3---3---5---5---6-------3---3---3---3---5---6---3---|
D-0---3---3---3---3---5---5---6-----------------------5---6---3---|
pm.

==================================================================
==================================================================


Bridge 1

Guitar 1 & 2 (x3)
E-----------------------------------------------------------------|
B-----------------------------------------------------------------|
G-----------------------------------------------------------------|
D-0-0-0---0-0-0-------0-0-0-------0-0-0---0-0-0-------0-0-0-------|
A-0-0-0---0-0-0---5~~-0-0-0---6~~-0-0-0---0-0-0---5~~-0-0-0---6~~-|
D-0-0-0---0-0-0---3~~-0-0-0---5~~-0-0-0---0-0-0---3~~-0-0-0---5~~-|
Pm. . .   . . .       . . .       . . .   . . .       . . .

==================================================================

Guitar 1 & 2
E-----------------------------------------------------------------|
B-----------------------------------------------------------------|
G-----------------------------------------------------------------|
D-0-0-0---0-0-0-------0-0-0-------0-------------------------------|
A-0-0-0---0-0-0---5~~-0-0-0---6~~-0-------------------------------|
D-0-0-0---0-0-0---3~~-0-0-0---5~~-0-------------------------------|
Pm. . .   . . .       . . .

==================================================================
==================================================================


Breakdown

(x2)

Guitar 1 & 2
E-----------------------------------------------------------------|
B-----------------------------------------------------------------|
G-----------------------------------------------------------------|
D-0-0-0---0-------0-------0-------0---0---0---0---0-0-0---0-0-0---|
A-0-0-0---0---3---0---5---0---6---0---0---0---0---0-0-0---0-0-0---|
D-0-0-0---0---5---0---7---0---8---0---0---0---0---0-0-0---0-0-0---|
Pm. . .   .       .       .           .   .   .   . . .   . . .

==================================================================

Guitar 1 & 2
E-----------------------------------------------------------------|
B-----------------------------------------------------------------|
G-----------------------------------------------------------------|
D-0-0-0---0-------0-------0-------0---0---0---0-------------------|
A-0-0-0---0---3---0---5---0---6---0---0---0---0-------------------|
D-0-0-0---0---5---0---7---0---8---0---0---0---0---6-5-3-0-6-5-3-0-|
Pm. . .   .       .       .           .   .   .   . . . . . . . .

==================================================================

Guitar 1 & 2
E-----------------------------------------------------------------|
B-----------------------------------------------------------------|
G-----------------------------------------------------------------|
D-0-0-0---0-------0-------0-------0---0---0---0---0-0-0---0-0-0---|
A-0-0-0---0---3---0---5---0---6---0---0---0---0---0-0-0---0-0-0---|
D-0-0-0---0---5---0---7---0---8---0---0---0---0---0-0-0---0-0-0---|
Pm. . .   .       .       .           .   .   .   . . .   . . .

==================================================================

Guitar 1 & 2
E-----------------------------------------------------------------|
B-----------------------------------------------------------------|
G-----------------------------------------------------------------|
D-0---1---1---1---1---1---1---1-------3---3---3---3---5---5---6---|
A-0---1---1---1---1---1---1---1-------3---3---3---3---5---5---6---|
D-0---1---1---1---1---1---1---1-------3---3---3---3---5---5---6---|
pm.

==================================================================
==================================================================


Guitar Solo

Guitar 2
E-------------------------------------------|
B-------------------------------------------|
G-14-17-14-13-14-17-14-13-14-17-14-13-14-17-|
D-------------------------------------------|
A-------------------------------------------|
D-------------------------------------------|

==================================================================

Guitar 1
E-----------------------------------------------------------------|
B-----------------------------------------------------------------|
G-----------------------------------------------------------------|
D-----------------------------------------------------------------|
A---------------------------------------------5-------------------|
D-6~brbr~-0---0-0-0---0-0-0---0-0-0---0---3-------0---5h6p5---0---|
Pm        .   . . .   . . .   . . .                           .

Guitar 2
E-----------------------------------------------------------------|
B-15~~~~~~~~~~~~~~~~~~~~~~~~~~~~~---------------------------------|
G---------------------------------12~~~~~~~~~~~~~~~~~~~~~~~~~~~~~-|
D-----------------------------------------------------------------|
A-----------------------------------------------------------------|
D-----------------------------------------------------------------|

==================================================================

Guitar 1
E-----------------------------------------------------------------|
B-----------------------------------------------------------------|
G-----------------------------------------------------------------|
D-----------------------------------------------------------------|
A---------------------------------------------5-------------------|
D-6~brbr~-0---0-0-0---5~b~~-5~b~~-5b~-0---3-------0---5h6p5---0---|
Pm        .   . . .                                           .

Guitar 2
E--------------------------------------13-12-10----------15~~~~~~-|
B-15*----------------------15--13---------------12-11-10----------|
G-----------------12-13-14---------14-----------------------------|
D-----15--12--15--------------------------------------------------|
A-----------------------------------------------------------------|
D-----------------------------------------------------------------|
Pm                                     .  .  .  .  .  .

==================================================================

Guitar 1
E-----------------------------------------------------------------|
B-----------------------------------------------------------------|
G-----------------------------------------------------------------|
D-------------------------------------------------------------0---|
A---------------------------------------------5---------------0---|
D-6~brbr~-0---0-0-0---0-0-0---0-0-0---0---3-------0---5h6p5---0---|
Pm        .   . . .   . . .   . . .                           .

Guitar 2
E-16b~~~~~~~~~~~~~~~~-16b----16b----16b---16b---16r---16r---16r---|
B-----------------------------------------------------------------|
G-----------------------------------------------------------------|
D-----------------------------------------------------------------|
A-----------------------------------------------------------------|
D-----------------------------------------------------------------|

==================================================================

Guitar 1
E-----------------------------------------------------------------|
B-----------------------------------------------------------------|
G-----------------------------------------------------------------|
D-0---6~~~~-6~~~~-6~~~-6~~~-5----3--------------------------------|
A-0---6~~~~-6~~~~-6~~~-6~~~-5----3------------5-------------------|
D-0---6~~~~-6~~~~-6~~~-6~~~-5----3----0---3-------0---5h6p5---0---|
Pm.                         .    .                            .

Guitar 2
E-16--16~~b~~~~~~~~~~~~~~~~~~~~~~~~~~-|
B-------------------------------------|
G-------------------------------------|
D-------------------------------------|
A-------------------------------------|
D-------------------------------------|

Guitar 2 continued
E-------------------------------------------------|
B-15-18-15-13-15-18-15-13-15-18-15-13-15-18-15-13-|
G-------------------------------------------------|
D-------------------------------------------------|
A-------------------------------------------------|
D-------------------------------------------------|


==================================================================

Guitar 1
E-----------------------------------------------------------------|
B-----------------------------------------------------------------|
G-----------------------------------------------------------------|
D-----------------------------------------------------------------|
A---------------------------------------------5-------------------|
D-6~brbr~-0---0-0-0---0-0-0---0-0-0---0---3-------0---5h6p5---0---|
Pm        .   . . .   . . .   . . .                           .

Guitar 2
E-------------------------------------------------|
B-------------------------------------------------|
G-14-17-14-13-14-17-14-13-14-17-14-13-14-17-14-13-|
D-------------------------------------------------|
A-------------------------------------------------|
D-------------------------------------------------|


Guitar 2 continued
E--------------------------------------------|
B--------------------------------------------|
G-14-12-11-10-11-10----10-12-10----10*-12-10-|
D-------------------12----------12-----------|
A--------------------------------------------|
D--------------------------------------------|


==================================================================


Guitar 1
E-----------------------------------------------------------------|
B-----------------------------------------------------------------|
G-----------------------------------------------------------------|
D-----------------------------------------------------------------|
A---------------------------------------------5-------------------|
D-6~brbr~-0---0-0-0---5~b~~-5~b~~-5b~-0---3-------0---5h6p5---0---|
Pm        .   . . .                                           .
.

Guitar 2
E----------------------------------|
B----------------------------------|
G----------------------10*~~~~~~~~-|
D-12-11-10-------------------------|
A----------12-11-10-11-------------|
D----------------------------------|
Pm.  .  .  .  .  .  .

Guitar 2 continued
E-------------------------------------|
B-6b~~~~~-------------6---------------|
G-8b~~~~~-7-5-7-5---------7-5-7-5-----|
D-----------------7---------------7-5-|
A-------------------------------------|
D-------------------------------------|

==================================================================


Guitar 1
E-----------------------------------------------------------------|
B-----------------------------------------------------------------|
G-----------------------------------------------------------------|
D-------------------------------------------------------------0---|
A---------------------------------------------5---------------0---|
D-6~brbr~-0---0-0-0---0-0-0---0-0-0---0---3-------0---5h6p5---0---|
Pm        .   . . .   . . .   . . .                           .


Guitar 2
E-----------------------------------------------------------------|
B-8-9-8-6---------------------------14b~~~~~~-14-13----14~~b~~~~~-|
G---------7-10-7------------------------------------12------------|
D----------------10-7-10------------------------------------------|
A------------------------10-11-10-8-------------------------------|
D-----------------------------------------------------------------|

==================================================================

Guitar 1
E-------------------------------------|
B-------------------------------------|
G-------------------------------------|
D-0---6~~~~-5----3----6~~~~-5----3----|
A-0---6~~~~-5----3----6~~~~-5----3----|
D-0---6~~~~-5----3----6~~~~-5----3----|
Pm.         .    .          .    .


Guitar 2
E-------------------------------------|
B-----12~~~~b~~~~r~~~-12~~~~b~~~~r~~~-|
G-----12~~~~b~~~~r~~~-12~~~~b~~~~r~~~-|
D-------------------------------------|
A-------------------------------------|
D-------------------------------------|

==================================================================
==================================================================


Interlude

Guitar 1
E----------------------------------------------------------------------|
B----------------------------------------------------------------------|
G----------------------------------------------------------------------|
D-0~~~~~~~~~~~~~~~~~~~~~~~~~~~~~~~~~~~~~~~~~~~~~~~~~~~~~~~~~~~~~~~~~~~-
A-0~~~~~~~~~~~~~~~~~~~~~~~~~~~~~~~~~~~~~~~~~~~~~~~~~~~~~~~~~~~~~~~~~~~-
D-0~~~~~~~~~~~~~~~~~~~~~~~~~~~~~~~~~~~~~~~~~~~~~~~~~~~~~~~~~~~~~~~~~~~-

Guitar 2
E----------------------------------------------------------------------|
B------------------------------------------13--15p13----13h15p13-15~b~-|
G----------------------------------12--14------------14----------------|
D-12~~~~~~~~~~~~~~-12--15--12--15--------------------------------------|
A----------------------------------------------------------------------|
D----------------------------------------------------------------------|

Guitar 3
E----------------------------------------------------------------------|
B----------------------------------------------------------------------|
G----------------------------------------------------------------------|
D---------------9h10p9~~~~~~-9h10p9~~~9~~~b~~~r~~~-7---5---7---7~~~~~~-|
A----------------------------------------------------------------------|
D----------------------------------------------------------------------|

==================================================================

Guitar 2
E-----------------------------------------------------------------|
B-13--15~~~~~-----------------------------------------------------|
G-------------14-15-14-15-14-15-12~~~~-------------14----14-------|
D--------------------------------------15-12-15-17----15----15-12-|
A-----------------------------------------------------------------|
D-----------------------------------------------------------------|

Guitar 3
E-----------------------------------------------------------------|
B-----------------------------------------------------------------|
G-----------------------------------------------------------------|
D-~~~~~~~~~~~-4h5p4~~~~~~~b~~~~~~~--------------------------------|
A----------------------------------5~~~~~~~~~~~~~~~~~~~~~~~~~~~~~-|
D-----------------------------------------------------------------|

==================================================================

Guitar 1
E-----------------------------------------------------------------|
B-----------------------------------------------------------------|
G-------------------------------------------------ps\~~~~~~~~~~~~-|
D-------------------------------------------------ps\~~~~~~~~~~~~-|
A-------------------------------------------------ps\~~~~~~~~~~~~-|
D-----------------------------------------------------------------|

Guitar 2
E-----------------------------------------------------------------|
B-----------------------------------------------------------------|
G-----------------------------------------------------------------|
D-~~~~~~~~~~~~~~~~~~~~~~~~~~~~~~~~~~~~~~~~~~~~~~~~~~~~~~~~~~~~~~~-
A-----------------------------------------------------------------|
D-----------------------------------------------------------------|

Guitar 3
E-----------------------------------------------------------------|
B-----------------------------------------------------------------|
G-----------------------------------------------------------------|
D-----------------------------------------------------------------|
A-~~~~~~~~~~~~~~~~~~~~~~~~~~~~~~~~~~~~~~~~~~~~~~~~~~~~~~~~~~~~~~~-
D-----------------------------------------------------------------

==================================================================
==================================================================


Pre Chorus 2

Guitar 1 & 2
E-----------------------------------------------------------------|
B-----------------------------------------------------------------|
G-7---7---7---7---7---7---7---7---7---7---7---7---7---------------|
D-7---7---7---7---7---7---7---7---7---7---7---7---7---------------|
A-5---5---5---5---5---5---5---5---5---5---5---5---5---5-------8---|
D---------------------------------------------------------6-------|

==================================================================

Guitar 1 & 2
E-----------------------------------------------------------------|
B-----------------------------------------------------------------|
G-----------------------------------------------------------------|
D-----------------------------------------------------5---3---0---|
A-8---8---8---8---8---8---5---7---7---7---7---7---7---5---3---0---|
D-5---5---5---5---5---------------3---3---3---3---3---5---3---0---|

==================================================================

Guitar 1 & 2
E-----------------------------------------------------------------|
B-----------------------------------------------------------------|
G-----------------------------------------------------------------|
D-1---1---1---1---1---------------3---3---3---3-------------------|
A-3---3---3---3---3---------------3---3---3---3-------------------|
D-1---1---1---1---1---4---3---1---3---3---3---3---3-5~b~r-3-5~b~r-|

==================================================================

Guitar 1 & 2
E-----------------------------------------------------------------|
B-----------------------------------------------------------------|
G-7---7---7---7---7---7---7---7---7---7---7---7---7---------------|
D-7---7---7---7---7---7---7---7---7---7---7---7---7---------------|
A-5---5---5---5---5---5---5---5---5---5---5---5---5---5-------8---|
D---------------------------------------------------------6-------|

==================================================================

Guitar 1 & 2
E-----------------------------------------------------------------|
B-----------------------------------------------------------------|
G-----------------------------------------------------------------|
D-----------------------------------------------------5---3---0---|
A-8---8---8---8---8---8---5---7---7---7---7---7---7---5---3---0---|
D-5---5---5---5---5---------------3---3---3---3---3---5---3---0---|

==================================================================

Guitar 1
E-----------------------------------------------------------------|
B-----------------------------------------------------------------|
G-----------------------------------------------------------------|
D-1---1---1---1---1---------------------------6---6h7p6-----5-----|
A-3---3---3---3---3-------------------5---8--------------6-----8--|
D-1---1---1---1---1---4---3---1-----------------------------------|

Guitar 2
E-----------------------------------------------------------------|
B-----------------------------------------------------------------|
G-----------------------------------------------------------------|
D-1---1---1---1---1-----------------------------------------------|
A-3---3---3---3---3-----------------------------------------------|
D-1---1---1---1---1---4---3---1-----------------------------------|

==================================================================
==================================================================


Chorus

(x2)

Guitar 1 & 2
E-----------------------------------------------------------------|
B-----------------------------------------------------------------|
G-----------------------------------------------------------------|
D-----------------------------------------------------------------|
A-------------------------------------5---------------------------|
D-3---0---0---0---0---3---0---3---0-------0---0---0---0---0---0---|

==================================================================

Guitar 1 & 2
E-----------------------------------------------------------------|
B-----------------------------------------------------------------|
G-----------------------------------------------------------------|
D---------------------------------6-----------6---5-------4-------|
A-----------------------------------------------------6-------3---|
D-3---0---0---0---0---3---0---3-------0---0-----------------------|
Pm                                    .   .

==================================================================

Guitar 1 & 2
E-----------------------------------------------------------------|
B-----------------------------------------------------------------|
G-----------------------------------------------------------------|
D-----------------------------------------------------------------|
A-------------------------------------5---------------------------|
D-3---0---0---0---0---3---0---3---0-------0---0---0---1---6---1---|

==================================================================

Guitar 1 & 2
E-----------------------------------------------------------------|
B-----------------------------------------------------------------|
G-------------------------------------5---5---5---5---------------|
D-0---3---3---3---3---5---5---6-------5---5---5---5---5---6---3---|
A-0---3---3---3---3---5---5---6-------3---3---3---3---5---6---3---|
D-0---3---3---3---3---5---5---6-----------------------5---6---3---|
pm.

==================================================================
==================================================================


Outro

Guitar 1 & 2
E-----------------------------------------------------------------|
B-----------------------------------------------------------------|
G-----------------------------------------------------------------|
D-----------------------------------------------------------------|
A-------------------------------------5-----------3-------2-------|
D-3---0---0---0---0---3---0---3---0-------3---6-------5-------3---|

==================================================================

Guitar 1 & 2
E-----------------------------------------------------------------|
B-----------------------------------------------------------------|
G-----------------------------------------------------------------|
D-6-----------6---5-------4-------------------6---6h7p6-----5-----|
A---------------------6-------3-------5---8--------------6-----8--|
D-----0---0-----------------------0-------------------------------|
pm    .   .                       .

==================================================================

Guitar 1 & 2
E-----------------------------------------------------------------|
B-----------------------------------------------------------------|
G-----------------------------------------------------------------|
D-----------------------------------------------------------------|
A-----------------------------------------5-------3---------------|
D-3---0---0---0---0---3---0---3---0---6-------3-------3---6---2---|

==================================================================

Guitar 1 & 2
E-----------------------------------------------------------------|
B-----------------------------------------------------------------|
G-----------------------------------------------------------------|
D-0---3---3---3---3---5---5---6---------------6---6h7p6-----5-----|
A-0---3---3---3---3---5---5---6-------5---8--------------6-----8--|
D-0---3---3---3---3---5---5---6-----------------------------------|
pm.

Guitar 1 & 2
E-----------------------------------------------------------------|
B-----------------------------------------------------------------|
G-----------------------------------------------------------------|
D-----------------------------------------------------------------|
A-------------------------------------5-----------3-------2-------|
D-3---0---0---0---0---3---0---3---0-------3---6-------5-------3---|

==================================================================

Guitar 1 & 2
E-----------------------------------------------------------------|
B-----------------------------------------------------------------|
G-----------------------------------------------------------------|
D-6-----------6---5-------4-------------------6---6h7p6-----5-----|
A---------------------6-------3-------5---8--------------6-----8--|
D-----0---0-----------------------0-------------------------------|
pm    .   .                       .

==================================================================

Guitar 1 & 2
E-----------------------------------------------------------------|
B-----------------------------------------------------------------|
G-----------------------------------------------------------------|
D-----------------------------------------------------------------|
A-----------------------------------------5-------3---------------|
D-3---0---0---0---0---3---0---3---0---6-------3-------3---6---2---|

==================================================================

Guitar 1 & 2
E-----------------------------------------------------------------|
B-----------------------------------------------------------------|
G-----------------------------------------------------------------|
D-0---3---3---3---3---5---5---6---------------6---6h7p6-----5-----|
A-0---3---3---3---3---5---5---6-------5---8--------------6-----8--|
D-0---3---3---3---3---5---5---6-----------------------------------|
pm.

==================================================================

Guitar 1 & 2
E-----------------------------------------------------------------|
B-----------------------------------------------------------------|
G-----------------------------------------------------------------|
D-0---------------------------------------------------------------|
A-0---------------------------------------------------------------|
D-0---------------------------------------------------------------|

==================================================================
==================================================================
==================================================================


Tab Legend
h - hammer-on
p - pull-off
/ - slide up
\ - slide down
ps/- pickslide up
ps\- pickslide down
~ - let ring
pm.- palm mute
b - bend
r - return from bend
* - harmonic
x - dead note
^ - Whammy bar
^\ - Whammy bar (hold down)

That's about it! I hope this tab helped you play this amazing song, and if you've got 
any problems, be sure to check out my cover! Thanks, oh and one last thing... ROCK OUT!!!!
Добавлено: 22.03.2012
Другие материалы по этой песне:

Страница создана 27.02.2012
http://primanota.ru/lamb-of-god/the-undertow-chords.htm
Привет, Гость.
Предлагаем пройти революционный курс по гитаре.
Подарок от PrimaNota.Ru, забирай!