PrimaNota.ru - самый крупный в мире бесплатный архив песенных текстов, аккордов, табулатур и нот


Lamb Of God - 11th Hour - текст песни, таба, бас-таба, видео

Регистрация Запомнить меня
Войти через:  Facebook Google Twitter Vk Yandex Mail.ru

Lamb Of God - 11th Hour - текст песни, таба, бас-таба, видео

Печатать
Просмотров: 186
   Guitars I, II
E||-------------------------------|
B||-------------------------------|
G||-------------------------------|
D||-------------------------------|
A||-12-------13p12----------------|
D||----13-12-------13-0-000-0-0-0-|x3
PM|-----x--x--------x-x-xxx-x-x-x-| 

   Guitars I, II
E||-------------------------------------|
B||-------------------------------------|
G||-------------------------------------|
D||-------------------------------------|
A||-12-------13p12----12p11----11p10----|
D||----13-12-------13-------12-------11-|
PM|-----x--x--------x--------x--------x-| 

   Guitars I, II
E||-------------------------------|
B||-------------------------------|
G||-------------------------------|
D||-------------------------------|
A||-12-------13p12----------------|
D||----13-12-------13-0-000-0-0-0-|x3
PM|-----x--x--------x-x-xxx-x-x-x-| 

   Guitars I, II
E||-------------------------------------------------------------|
B||-------------------------------------------------------------|
G||-------------------------------------------------------------|
D||-------------------------------------------------------8---7-|
A||-12-------13p12----12p11----11p10----8-7-6-------5-----6---5-|
D||----13-12-------13-------12-------11-------8-7-6---6-5---0---|
PM|-----x--x--------x--------x--------x-x-x-x-x-x-x---x-x---x---| 

   Guitars I, II
E||------------------------------------------------|
B||------------------------------------------------|
G||------------------------------------------------|
D||------------------------------------------8---7-|
A||-0-0-0-1-0-0-0-0-1-0-4-0-0-0-1-0-0--5-----6---5-|
D||-0-0-0-1-0-0-0-0-1-0-4-0-0-0-1-0-0----6-5---0---|x4
PM|-x-x-x-----x-x-x-------x-x-x-----x----x-x---x---| 

   Guitars I, II
E||---------------------------------------------------|
B||---------------------------------------------------|
G||---------------------------------------------------|
D||---------------------------------------------------|
A||-------------------------------------3/7-7-7-8-8-8-|
D||-4-444-4-4-4---444-4-4-4-3-333-3-3-3-3/7-7-7-7-7-7-|
PM|-x-xxx-x-x-x---xxx-x-x-x-x-xxx-x-x-x---------------| 

   Guitars I, II
E||------------------------------------------------|
B||------------------------------------------------|
G||------------------------------------------------|
D||------------------------------------------8---7-|
A||-0-0-0-1-0-0-0-0-1-0-4-0-0-0-1-0-0--5-----6---5-|
D||-0-0-0-1-0-0-0-0-1-0-4-0-0-0-1-0-0----6-5---0---|x4
PM|-x-x-x-----x-x-x-------x-x-x-----x----x-x---x---|

   Guitars I, II
E||---------------------------------------------------|
B||---------------------------------------------------|
G||---------------------------------------------------|
D||---------------------------------------------------|
A||-------------------------------------3/7-7-7-8-8-8-|
D||-4-444-4-4-4---444-4-4-4-3-333-3-3-3-3/7-7-7-7-7-7-|
PM|-x-xxx-x-x-x---xxx-x-x-x-x-xxx-x-x-x---------------|

   Guitars I, II
E||-------------------------------------------------------------|
B||-------------------------------------------------------------|
G||-------------9-9-------------9-9-------9-9-------------10-10-|
D||-------------0-0-------------0-0-------0-0--------------0--0-|
A||-------------------------------------------------------------|
D||-0-000-0-0-0-----0-000-0-0-0-----0-000-----8-888-8-8-8-------|
PM|-x-xxx-x-x-x-----x-xxx-x-x-x-----x-xxx-----x-xxx-x-x-x-------| 

   Guitars I, II
E||-----------------------------------|
B||-------------------10-9----11*-----|
G||-------------10-10------10------10-|
D||--------------0--0-----------------|
A||-----------------------------------|
D||-8-888-8-8-8-----------------------|
PM|-x-xxx-x-x-x-----------------------| 

   Guitars I, II
E||-------------------------------------------------------------|
B||-------------------------------------------------------------|
G||-------------9-9-------------9-9-------9-9-------------10-10-|
D||-------------0-0-------------0-0-------0-0--------------0--0-|
A||-------------------------------------------------------------|
D||-0-000-0-0-0-----0-000-0-0-0-----0-000-----8-888-8-8-8-------|
PM|-x-xxx-x-x-x-----x-xxx-x-x-x-----x-xxx-----x-xxx-x-x-x-------| 

   Guitars I, II
E||----------------------------------|
B||----------------------------------|
G||-------------10-10----------------|
D||--------------0--0----------------|
A||-------------------12-10-8---10---|
D||-8-888-8-8-8---------------8----8-|
PM|-x-xxx-x-x-x--------x--x-x-x--x-x-|

   Guitars I, II
E||-------------------------------------------------------------|
B||-------------------------------------------------------------|
G||-------------9-9-------------9-9-------9-9-------------10-10-|
D||-------------0-0-------------0-0-------0-0--------------0--0-|
A||-------------------------------------------------------------|
D||-0-000-0-0-0-----0-000-0-0-0-----0-000-----8-888-8-8-8-------|
PM|-x-xxx-x-x-x-----x-xxx-x-x-x-----x-xxx-----x-xxx-x-x-x-------| 

   Guitars I, II
E||-----------------------------------|
B||-------------------10-9----11*-----|
G||-------------10-10------10------10-|
D||--------------0--0-----------------|
A||-----------------------------------|
D||-8-888-8-8-8-----------------------|
PM|-x-xxx-x-x-x-----------------------| 

   Guitars I, II
E||-------------------------------------------------------------|
B||-------------------------------------------------------------|
G||-------------9-9-------------9-9-------9-9-------------10-10-|
D||-------------0-0-------------0-0-------0-0--------------0--0-|
A||-------------------------------------------------------------|
D||-0-000-0-0-0-----0-000-0-0-0-----0-000-----8-888-8-8-8-------|
PM|-x-xxx-x-x-x-----x-xxx-x-x-x-----x-xxx-----x-xxx-x-x-x-------| 

   Guitars I, II
E||----------------------------------|
B||----------------------------------|
G||-------------10-10----------------|
D||--------------0--0----------------|
A||-------------------12-10-8---10---|
D||-8-888-8-8-8---------------8----8-|
PM|-x-xxx-x-x-x--------x--x-x-x--x-x-|

   Guitars I, II
E||------------------------------------------------------------------------|
B||------------------------------------------------------------------------|
G||------------------------------------------------------------------------|
D||------------------------------------------------------------------------|
A||-------------7h8~-------------7h8~-------------7h8~-------------7h8-8p7-|
D||-0-000-0-0-0------0-000-0-0-0------8-888-8-8-8------5-555-5-5-5---------|
PM|-x-xxx-x-x-x------x-xxx-x-x-x------x-xxx-x-x-x------x-xxx-x-x-x---------| 

   Guitars I, II
E||----------------------------------------------------------------------------|
B||----------------------------------------------------------------------------|
G||----------------------------------------------------------------------------|
D||----------------------------------------------------------------------------|
A||-------------7h8~-------------7h8~-------------7h8~-------------7h8---------|
D||-0-000-0-0-0------0-000-0-0-0------8-888-8-8-8------5-555-5-5-5-----0h3brbr-|
PM|-x-xxx-x-x-x------x-xxx-x-x-x------x-xxx-x-x-x------x-xxx-x-x-x-------------|

   Guitar I
E||----------------------------------------------------------------------------|
B||----------------------------------------------------------------------------|
G||-------------9h10~-------------9h10~-------------10h12~---------------------|
D||-------------0--0--------------0--0---------------0--0----------------------|
A||--------------------------------------------------------------------7h8-8p7-|
D||-0-000-0-0-0-------0-000-0-0-0-------8-888-8-8-8--------5-555-5-5-5---------|
PM|-x-xxx-x-x-x-------x-xxx-x-x-x-------x-xxx-x-x-x--------x-xxx-x-x-x---------| 
 ||
 ||Guitar II
E||------------------------------------------------------------------------|
B||------------------------------------------------------------------------|
G||------------------------------------------------------------------------|
D||------------------------------------------------------------------------|
A||-------------7h8~-------------7h8~-------------7h8~-------------7h8-8p7-|
D||-0-000-0-0-0------0-000-0-0-0------8-888-8-8-8------5-555-5-5-5---------|
PM|-x-xxx-x-x-x------x-xxx-x-x-x------x-xxx-x-x-x------x-xxx-x-x-x---------| 

   Guitar I
E||--------------------------------------------------------------------------------|
B||--------------------------------------------------------------------------------|
G||-------------9h10~-------------9h10~-------------10h12~-------------------------|
D||-------------0--0--------------0--0---------------0--0--------------------------|
A||--------------------------------------------------------------------7h8---------|
D||-0-000-0-0-0-------0-000-0-0-0-------8-888-8-8-8--------5-555-5-5-5-----0h3brbr-|
PM|-x-xxx-x-x-x-------x-xxx-x-x-x-------x-xxx-x-x-x--------x-xxx-x-x-x-------------| 
 ||
 ||Guitar II
E||----------------------------------------------------------------------------|
B||----------------------------------------------------------------------------|
G||----------------------------------------------------------------------------|
D||----------------------------------------------------------------------------|
A||-------------7h8~-------------7h8~-------------7h8~-------------7h8---------|
D||-0-000-0-0-0------0-000-0-0-0------8-888-8-8-8------5-555-5-5-5-----0h3brbr-|
PM|-x-xxx-x-x-x------x-xxx-x-x-x------x-xxx-x-x-x------x-xxx-x-x-x-------------| 

   Guitars I, II
E||-------------------------------------------------------------|
B||-------------------------------------------------------------|
G||-------------9-9-------------9-9-------9-9-------------10-10-|
D||-------------0-0-------------0-0-------0-0--------------0--0-|
A||-------------------------------------------------------------|
D||-0-000-0-0-0-----0-000-0-0-0-----0-000-----8-888-8-8-8-------|
PM|-x-xxx-x-x-x-----x-xxx-x-x-x-----x-xxx-----x-xxx-x-x-x-------| 

   Guitars I, II
E||-----------------------------------|
B||-------------------10-9----11*-----|
G||-------------10-10------10------10-|
D||--------------0--0-----------------|
A||-----------------------------------|
D||-8-888-8-8-8-----------------------|
PM|-x-xxx-x-x-x-----------------------| 

   Guitars I, II
E||-------------------------------------------------------------|
B||-------------------------------------------------------------|
G||-------------9-9-------------9-9-------9-9-------------10-10-|
D||-------------0-0-------------0-0-------0-0--------------0--0-|
A||-------------------------------------------------------------|
D||-0-000-0-0-0-----0-000-0-0-0-----0-000-----8-888-8-8-8-------|
PM|-x-xxx-x-x-x-----x-xxx-x-x-x-----x-xxx-----x-xxx-x-x-x-------| 

   Guitars I, II
E||----------------------------------|
B||----------------------------------|
G||-------------10-10----------------|
D||--------------0--0----------------|
A||-------------------12-10-8---10---|
D||-8-888-8-8-8---------------8----8-|
PM|-x-xxx-x-x-x--------x--x-x-x--x-x-|

   Guitars I, II
E||-------------------------------------------------------------|
B||-------------------------------------------------------------|
G||-------------9-9-------------9-9-------9-9-------------10-10-|
D||-------------0-0-------------0-0-------0-0--------------0--0-|
A||-------------------------------------------------------------|
D||-0-000-0-0-0-----0-000-0-0-0-----0-000-----8-888-8-8-8-------|
PM|-x-xxx-x-x-x-----x-xxx-x-x-x-----x-xxx-----x-xxx-x-x-x-------| 

   Guitars I, II
E||-----------------------------------|
B||-------------------10-9----11*-----|
G||-------------10-10------10------10-|
D||--------------0--0-----------------|
A||-----------------------------------|
D||-8-888-8-8-8-----------------------|
PM|-x-xxx-x-x-x-----------------------| 

   Guitars I, II
E||-------------------------------------------------------------|
B||-------------------------------------------------------------|
G||-------------9-9-------------9-9-------9-9-------------10-10-|
D||-------------0-0-------------0-0-------0-0--------------0--0-|
A||-------------------------------------------------------------|
D||-0-000-0-0-0-----0-000-0-0-0-----0-000-----8-888-8-8-8-------|
PM|-x-xxx-x-x-x-----x-xxx-x-x-x-----x-xxx-----x-xxx-x-x-x-------| 

   Guitars I, II
E||-----------------------------------------|
B||-----------------------------------------|
G||-----------------------------------------|
D||-----------------------------------------|
A||-------------12-10-8---10---8-7-5-10-8-7-|
D||-8-888-8-8-8---------8----8--------------|
PM|-x-xxx-x-x-x--x--x-x-x--x-x-x-x-x--x-x-x-|

  Guitars I, II
E||------------------------------------------------------------------|
B||------------------------------------------------------------------|
G||------------------------------------------------------------------|
D||---------7---5-------10p8---8p7-----------7---5-------------------|
A||-----8--------------------------------8---------------------------|
D||-0-0---0---0---0-0-0------0-----0-0-0---0---0---0-0h3brbr-0h6brbr-|
PM|---x---x---x---x---x------x-----x---x---x---x---x-----------------| 

   Guitars I, II
E||-----------------------------------------------------------------------|
B||-----------------------------------------------------------------------|
G||-----------------------------------------------------------------------|
D||-----------------------------------------------7---5-------------------|
A||-----8---12---10---8---10---7h8p7----------8---------------------------|
D||-0-8---8----8----8---8----8-------8-5--0-0---0---0---0-0-3brbr-0-6brbr-|
PM|---x---x----x----x---x----x--------------x---x---x---x-----------------|

   Guitars I, II
E||------------------------------------------------------------------|
B||------------------------------------------------------------------|
G||------------------------------------------------------------------|
D||---------7---5-------10p8---8p7-----------7---5-------------------|
A||-----8--------------------------------8---------------------------|
D||-0-0---0---0---0-0-0------0-----0-0-0---0---0---0-0h3brbr-0h6brbr-|
PM|---x---x---x---x---x------x-----x---x---x---x---x-----------------|

   Guitars I, II
E||-----------------------------------------------------------------------|
B||-----------------------------------------------------------------------|
G||-----------------------------------------------------------------------|
D||-----------------------------------------------7---5-------------------|
A||-----8---12---10---8---10---7h8p7----------8---------------------------|
D||-0-8---8----8----8---8----8-------8-5--0-0---0---0---0-0h3brbr-0h6brbr-|
PM|---x---x----x----x---x----x--------------x---x---x---x-----------------|

   Guitars I, II
E||----------------------------------------------------------------------------------|
B||----------------------------------------------------------------------------------|
G||----------------------------------------------------------------------------------|
D||----------------------------------------------------------------------------------|
A||----------------------------------------------------------------------------------|
D||-00000--00000--000-0000000--00000--00000--000-0000000--00000--00000--000-0000000--|
PM|-xxxxx--xxxxx--xxx-xxxxxxx--xxxxx--xxxxx--xxx-xxxxxxx--xxxxx--xxxxx--xxx-xxxxxxx--| 
	
   Guitars I, II
E||-------------------------|
B||---------------------5~--|
G||---------------------8~--|
D||-------------------------|
A||---------------0-0-0-----|
D||-00000--00000--0-0-0-----|
PM|-xxxxx--xxxxx--x-x-x-----| 

   Guitars I, II
E||-----------------------------------------------------------------|
B||-------5-------5-------5-------5-------5-------5-------5-------5-|
G||-------8-------8-------8-------8-------8-------8-------8-------8-|
D||-----------------------------------------------------------------|
A||-----------------------------------------------------------------|
D||-00000---00000---00000---00000---00000---00000---00000---00000---|x4
PM|-xxxxx---xxxxx---xxxxx---xxxxx---xxxxx---xxxxx---xxxxx---xxxxx---|

   Guitars I, II
E||-----------------------------------------------------------------|
B||-----------------------------------------------------------------|
G||-----------------------------------------------------------------|
D||-----------------------------------------------------------------|
A||-0-0-0-0-0-0-0-0-0-0-0-0-0-0-0-0-0-0-0-0-0-0-0-0-----------------|
D||-0-0-0-0-0-0-0-0-0-0-0-0-0-0-0-0-0-0-0-0-0-0-0-0-0h3brbr-0h6brbr-|x4
PM|-x-x-x-x-x-x-x-x-x-x-x-x-x-x-x-x-x-x-x-x-x-x-x-x-----------------|

   Guitars I, II
E||-----------------------------------------------------------------|
B||-------5-------5-------5-------5-------5-------5-----------------|
G||-------8-------8-------8-------8-------8-------8-----------------|
D||-----------------------------------------------------------------|
A||-0-0-0---0-0-0---0-0-0---0-0-0---0-0-0---0-0-0-------------------|
D||-0-0-0---0-0-0---0-0-0---0-0-0---0-0-0---0-0-0---0h3brbr-0h6brbr-|x4
PM|-x-x-x---x-x-x---x-x-x---x-x-x---x-x-x---x-x-x-------------------|
  
   Guitars I, II
E||--------------------------------|
B||--------------------------------|
G||--------------------------------|
D||---------7---5-------10p8---8p7-|
A||-----8--------------------------|
D||-0-0---0---0---0-0-0------0-----|
PM|---x---x---x---x---x------x-----|
Добавлено: 04.09.2013
Другие материалы по этой песне:

Страница создана 25.03.2012
http://primanota.ru/lamb-of-god/11th-hour-chords.htm
Привет, Гость.
Предлагаем пройти революционный курс по гитаре.
Подарок от PrimaNota.Ru, забирай!