PrimaNota.ru - самый крупный в мире бесплатный архив песенных текстов, аккордов, табулатур и нот


Lamb Of God - The Passing - таба, бас-таба, видео

Регистрация Запомнить меня
Войти через:  Facebook Google Twitter Vk Yandex Mail.ru

Lamb Of God - The Passing - таба, бас-таба, видео

Печатать
Просмотров: 236
1st Part (acoustic) 2x
|------------------------------------------------------------------|
|------------------------------------------------------------------|
|--------------------------------------4------------0--------------|
|---------2---4-5--4h5p4--2---------------4------------4-----------|
|------2-------------------------------------2------------2--------|
|---2-------------------------2-----------------2------------2-----|

|------------------------------------------------------------------|
|------------------------------------------------------------------|
|------------------------------------------------------------------|
|---------2---4-5--4h5p4--5-4------0-------------------------------|
|------2-----------------------------------------------------------|
|---2--------------------------0-----------------------------------|

2nd Part (acoustic)
|-----------------------0-----------------------------------|
|------------0------------0------0--------------------------|
|----------2---2------------2------2------------------------|
|--------0-------0------------0------0----------------------|
|------3-----------3-------------------3--------------------|
|----3------------------------------------------------------|

|-----------------------------------------------------------|
|-----------------------------------------------------------|
|-----5s7-----7s9-----9s10---10s9----9s7--------------------|
|-----------------------------------------------------------|
|-----3s5-----5s7-----7s8-----8s7----7s5--------------------|
|---0-------0-------0-------0------0------------------------|

|-----------------------0-----------------------------------|
|------------0------------0------0--------------------------|
|----------2---2------------2------2------------------------|
|--------0-------0------------0------0----------------------|
|------3-----------3-------------------3--------------------|
|----3------------------------------------------------------|

|--------------------------------------------------------|
|--------------------------------------------------------|
|--------------------------------------------------------|
|--2-3-2-3-2-3-2-3-2-3-2-3-2-3--0------------------------|
|--0-1-0-1-0-1-0-1-0-1-0-1-0-1--0------------------------|
|-------------------------------0------------------------|

3rd Part (electric) 2x                     3x
|--12~~~----------------| |-------------------| |-------------------|
|-----------12----10~~--| |--12--10--8--7--5--| |--10~~---8--7------|
|-----------------------| |-------------------| |---------------7---|
|-----------------------| |---9---7--5--4--2--| |-------------------|
|-----------------------| |-------------------| |-------------------|
|-----------------------| |-------------------| |-------------------|

4th Part (solo) 2x
|------------------------------------------------------------------|
|---11b--9------9--11--9----11--11b--9------9--11--9--11--11~~-----|
|-----------11--------------------------11-------------------------|
|------------------------------------------------------------------|
|------------------------------------------------------------------|
|------------------------------------------------------------------|

0utro
|--------------------------------------------------------------------------|
|12--10--8--7--5----12--10--8--7--5----12--10--8--7--5----10~~--8--7-------|
|--------------------------------------------------------------------7--9~~|
|-9---7--5--4--2-----9---7--5--4--2-----9---7--5--4--2---------------------|
|--------------------------------------------------------------------------|
|--------------------------------------------------------------------------|
Добавлено: 03.06.2012
Другие материалы по этой песне:

Страница создана 21.02.2012
http://primanota.ru/lamb-of-god/the-passing-chords.htm
Привет, Гость.
Предлагаем пройти революционный курс по гитаре.
Подарок от PrimaNota.Ru, забирай!