PrimaNota.ru - самый крупный в мире бесплатный архив песенных текстов, аккордов, табулатур и нот


Lamb Of God - Shoulder Of Your God - текст песни, таба, бас-таба, видео

Регистрация Запомнить меня
Войти через:  Facebook Google Twitter Vk Yandex Mail.ru

Lamb Of God - Shoulder Of Your God - текст песни, таба, бас-таба, видео

Печатать
Просмотров: 170
Уроки эстрадного вокала в Санкт-Петербурге
                              SHOULDER OF YOUR GOD
                           As recorded by Lamb Of God
                           (From the 2009 Album WRATH)

Words by Randy Blythe

Music by Lamb Of God
Arranged by Lamb Of God
Transcribed by Simon Montague-Bassett

Gtr I (D A D G B E) - 'Willie Adler'
Gtr II (D A D G B E) - 'Mark Morton'
Gtr III (D A D G B E) - 'Mark Morton - Harmony'

    Q=138
   4/4
    Gtrs I, II
    |-3-|  |-3-|  |-3-| |-3-|   |-3-| |-3-| |-3-| |-3-|
    E E E  E E E  E E E E E E   E E E E E E E E E E E E
||----------------------------|-------------------------|
||o---------------------------|-------------------------|
||----------------------------|-------------------------|
||---------------15-----------|-------------------------|
||o-------12------------------|-------------------------|
||--0-0-0----0-0----0-0-0-0-0-|-0-0-0-0-0-0-0-0-0-0-0-0-|


  |-3-|  |-3-|  |-3-| |-3-|   |-3-| |-3-| |-3-| |-3-|
  E E E  E E E  E E E E E E   E E E E E E E E E E E E
|---------------------------|--------------------------|
|---------------------------|--------------------------|
|---------------------------|--------------------------|
|--------------15-----------|--------------------------|
|-------11------------------|--------------------------|
|-0-0-0----0-0----0-0-0-0-0-|-0-0-0-0-0-0-0-0-0-0-0-0--|


  |-3-|  |-3-|  |-3-| |-3-|   |-3-| |-3-| |-3-| |-3-|   |-3-| |-3-|  |-3-| |-3-|
  E E E  E E E  E E E E E E   E E E E E E E E E E E E   E E E E E E  E E E E E E
|---------------------------|-------------------------|--------------------------|
|---------------------------|-------------------------|--------------------------|
|---------------------------|-------------------------|--------------------------|
|--------------15-----------|-------------------------|-------------12-----------|
|-------13------------------|-------------------------|-------8------------------|
|-0-0-0----0-0----0-0-0-0-0-|-0-0-0-0-0-0-0-0-0-0-0-0-|-0-0-0---0-0----0-0-0-0-0-|


 1.                           2.
                                            PM--------|
  |-3-|  |-3-| |-3-| |-3-|     |-3-|  |-3-| |-3-| |-3-|
  E E E  E E E E E E E E E     E E E  E E E E E E E E E
|---------------------------||---------------------------|
|--------------------------o||---------------------------|
|---------------------------||---------------------------|
|-------12------------------||-------12------------------|
|-7------------------------o||-7------------8-8-8-8-8-8--|
|---0-0----0-0-0-0-0-0-0-0--||---0-0----0-0-8-8-8-8-8-8--|


    PM------|   PM  PM         PM------|   PM  PM
  |-3-| |-3-| |-3-| |-3--|   |-3-| |-3-| |-3-| |--3---|
  E E E E E E E E E E E  E   E E E E E E E E E E  E   E
|--------------------------|----------------------------|
|--------------------------|----------------------------|
|--------------------------|----------------------------|
|--------------------------|----------------------------|
|-8-----------8---8---8h10-|-8-----------8---8---[8]h10-|
|---0-0-0-0-0---0---0------|---0-0-0-0-0---0---0--------|


    PM------|   PM  PM
  |-3-| |-3-| |-3-| |-3--|   |-3-| |-3-| |-3-| |-3-|
  E E E E E E E E E E E  E   E E E E E E E E E E E E
|--------------------------|----------------------------|
|--------------------------|----------------------------|
|--------------------------|----------------------------|
|--------------------------|-----------------------5----|
|-7-----------8---8---8h10-|-------------7-----8-7------|
|---0-0-0-0-0---0---0------|-5-7-5-8-7-5---8-7----------|


    PM------|   PM  PM         PM------|   PM  PM
  |-3-| |-3-| |-3-| |-3--|   |-3-| |-3-| |-3-| |--3---|
  E E E E E E E E E E E  E   E E E E E E E E E E  E   E
|--------------------------|----------------------------|
|--------------------------|----------------------------|
|--------------------------|----------------------------|
|--------------------------|----------------------------|
|-8-----------8---8---8h10-|-8-----------8---8---[8]h10-|
|---0-0-0-0-0---0---0------|---0-0-0-0-0---0---0--------|


                            Gtr I
    PM------|   PM  PM
  |-3-| |-3-| |-3-| |-3-|   |-3-| |-3-| |-3-| |-3-|
  E E E E E E E E E E E E   E E E E E E E E E E E E
|-------------------------|----------------------------|
|-------------------------|----------------------------|
|-------------------------|----------------------------|
|-------------------------|-----------------------3----|
|-7-----------7---7---7h8-|-------------5-----6-5------|
|---0-0-0-0-0---0---0-----|-3-5-3-6-5-3---6-5----------|


    Gtrs I, II
      PM------|   PM  PM        PM------|   PM  PM
    |-3-| |-3-| |-3-| |-3-|   |-3-| |-3-| |-3-| |-3-|
    E E E E E E E E E E E E   E E E E E E E E E E E E
||--------------------------|-------------------------|
||o-------------------------|-------------------------|
||--------------------------|-------------------------|
||--7-----------7---7---7s8-|-7-----------7---7---7s8-|
||o-5-----------5---5---5s6-|-5-----------5---5---5s6-|
||----0-0-0-0-0---0---0-----|---0-0-0-0-0---0---0-----|


    PM------|   PM  PM        PM------|    PM|   PM|
  |-3-| |-3-| |-3-| |-3-|   |-3-| |-3-|  |-3-| |-3-|
  E E E E E E E E E E E E   E E E E E E  E E E E E E
|-------------------------|-----------------------------|
|-------------------------|-----------------------------|
|-------------------------|-8---------------------------|
|-6-----------7---7---7s8-|-6-----------10-----8--------|
|-4-----------5---5---5s6-|--------------8-----6--------|
|---0-0-0-0-0---0---0-----|---0-0-0-0-0----0-0---0-0----|


    PM------|   PM  PM        PM------|   PM  PM        PM------|   PM  PM
  |-3-| |-3-| |-3-| |-3-|   |-3-| |-3-| |-3-| |-3-|   |-3-| |-3-| |-3-| |-3-|
  E E E E E E E E E E E E   E E E E E E E E E E E E   E E E E E E E E E E E E
|-------------------------|-------------------------|-------------------------|
|-------------------------|-------------------------|-------------------------|
|-------------------------|-------------------------|-------------------------|
|-7-----------7---7---7s8-|-7-----------7---7---7s8-|-6-----------7---7---7s8-|
|-5-----------5---5---5s6-|-5-----------5---5---5s6-|-4-----------5---5---5s6-|
|---0-0-0-0-0---0---0-----|---0-0-0-0-0---0---0-----|---0-0-0-0-0---0---0-----|


 1.                          2.
                                                Gtr I
  |-3-| |-3-| |-3-| |-3-|     |-3-| |-3-| |-3-| |-3-|
  E E E E E E E E E E E E     E E E E E E E E E E E E
|--------------------------||--------------------------|
|-------------------------o||--------------------------|
|--------------------------||--------------------------|
|-----------------------3--||-------------------4------|
|-------------5-----6-5---o||-------------5-------6-3--|
|-3-5-3-6-5-3---6-5--------||-3-5-3-6-5-3---6-5--------|


    Gtrs I, II
    PM---------------------------------------------
    |-3-| |-3-| |3| |-3-|   |-3-| |-3-| |3| |-3-|
    E E E E E E Q E E E E   E E E E E E Q E E E E
||------------------------|-----------------------|
||o-----------------------|-----------------------|
||------------------------|-----------------------|
||------------------------|-----------------------|
||o-----------------------|-----------------------|
||--0-0-0-0---0---0-0-0-0-|-0-0-0-0---0---0-0-0-0-|


 ---------------------------------------|
  |-3-| |-3-| |3| |-3-|   |-3-| |-3-| |3| |-3-|
  E E E E E E Q E E E E   E E E E E E Q E E E E
|-----------------------|---------------------------||
|-----------------------|--------------------------o||
|-----------------------|---------------------------||
|-----------------------|-----------------4---------||
|-----------------------|-------------------6-3----o||
|-0-0-0-0---0---0-0-0-0-|-0-0-0-0---0---0-----------||


    Gtr I
    PM-------------------------------------------------
    |-3-| |-3-| |-3-| |-3-|   |-3-| |-3-| |-3-| |-3-|
    E E E E E E Q   E E E E   E E E E E E Q   E E E E
||--------------------------|-------------------------|
||o-------------------------|-------------------------|
||--------------------------|-------------------------|
||--------------------------|-------------------------|
||o-------------------------|-------------------------|
||--0-0-0-0---0-----0-0-0-0-|-0-0-0-0---0-----0-0-0-0-|
|
|   Gtr II
|   |-3-| |-3-| |-3-| |-3-|   |-3-| |-3-| |-3-| |-3-|
|   E E E E E E E E E E E E   E E E E E E E E E E E E
||--------------------------|-------------------------|
||o-------------------------|-------------------------|
||--------------------------|-------------------------|
||--------------------------|-------------------------|
||o-------------------------|-------------------------|
||--0-1-0-3-0-4-0-1-0-4-3-1-|-0-1-0-3-0-4-0-1-0-4-3-1-|


 -------------------------------------------|
  |-3-| |-3-| |-3-| |-3-|   |-3-| |-3-| |-3-| |-3-|
  E E E E E E Q   E E E E   E E E E E E Q   E E E E
|-------------------------|-----------------------------||
|-------------------------|----------------------------o||
|-------------------------|-----------------------------||
|-------------------------|-------------------4---------||
|-------------------------|---------------------6-3----o||
|-0-0-0-0---0-----0-0-0-0-|-0-0-0-0---0-----0-----------||
|
| |-3-| |-3-| |-3-| |-3-|   |-3-| |-3-| |-3-| |-3-|
| E E E E E E E E E E E E   E E E E E E E E E E E E
|-------------------------|-----------------------------||
|-------------------------|----------------------------o||
|-------------------------|-----------------------------||
|-------------------------|-----------------------------||
|-------------------------|----------------------------o||
|-0-1-0-3-0-4-0-1-0-4-3-1-|-0-1-0-3-0-4-0-1-0-4-3-1-----||


  Gtrs I, II
  |-3-| |-3-| |-3-| |-3-|   |-3-| |-3-| |-3-| |-3-|
  E E E E E E E E E E E E   E E E E E E E E E E E E
|-------------------------|-------------------------|
|-------------------------|-------------------------|
|-------------------------|-------------------------|
|-------------------------|-------------------------|
|-------------------------|-------------------------|
|-0-1-0-3-0-4-0-1-0-4-3-1-|-0-1-0-3-0-4-0-1-0-4-3-1-|


  PM----------------------------------------------|
  |-3-| |-3-| |-3-| |-3-|   |-3-| |-3-| |-3-| |-3-|
  E E E E E E E E E E E E   E E E E E E E E E E E E
|-------------------------|----------------------------|
|-------------------------|----------------------------|
|-------------------------|----------------------------|
|-------------------------|----------------------------|
|-0-1-0-3-0-4-0-1-0-4-3-1-|-0-1-0-3-0-4-0-1-0-4-3-1----|
|-0-1-0-3-0-4-0-1-0-4-3-1-|-0-1-0-3-0-4-0-1-0-4-3-1----|


    Gtr I
          |-3-| |---3---|              |--3--|  |---3----|
    Q     Q   E Q   Q   Q     Q        Q     E  Q    Q   Q
||--------------------------|--------------------------------|
||o-------------------------|--------------------------------|
||--------------------------|--------------------------------|
||--0-----0---0-0---0---0---|-3--------3-----3--3---/6---6---|
||o-0-----0---0-0---0---0---|-3--------3-----3--3---/6---6---|
||--0-----0---0-0---0---0---|-3--------3-----3--3---/6---6---|
|
|   Gtr II
|   |-3-| |-3-| |-3-| |-3-|   |--3--|  |--3--|  |-3--| |-3-|
|   E E E E E E E E E E E E   E  E  E  E  E  E  E E  E E E E
||--------------------------|--------------------------------|
||o-------------------------|--------------------------------|
||--------------------------|--------------------------------|
||--0-0-0-0-0-0-7-7-7-7-7-7-|-7s10-10-10-10-10-10s8--8-8-8-8-|
||o-------------------------|--------------------------------|
||--------------------------|--------------------------------|


  |3|   |-3-| |---3---|     |3|   |-3-| |-3-| |-3-|
  E Q   Q   E Q   Q   Q     E Q   Q   E Q   E E E E
|-------------------------|----------------------------|
|-------------------------|----------------------------|
|-------------------------|----------------------------|
|-6s5---5---5-5---5---5---|-5s4---4---4-4---1-1-1-1----|
|-6s5---5---5-5---5---5---|-5s4---4---4-4---1-1-1-1----|
|-6s5---5---5-5---5---5---|-5s4---4---4-4---1-1-1-1----|
|
| |-3-| |-3-| |-3-| |-3-|   |-3-| |-3-| |-3-| |-3-|
| E E E E E E E E E E E E   E E E E E E E E E E E E
|-------------------------|----------------------------|
|-------------------------|----------------------------|
|-------------------------|----------------------------|
|-8s5-5-5-5-5-5-5-5-5-5-5-|-5s4-4-4-4-4-4s1-1-1-1-1----|
|-------------------------|----------------------------|
|-------------------------|----------------------------|


        |-3-| |---3---|              |--3--|  |---3----|
  Q     Q   E Q   Q   Q     Q        Q     E  Q    Q   Q
|-------------------------|--------------------------------|
|-------------------------|--------------------------------|
|-------------------------|--------------------------------|
|-0-----0---0-0---0---0---|-3--------3-----3--3---/6---6---|
|-0-----0---0-0---0---0---|-3--------3-----3--3---/6---6---|
|-0-----0---0-0---0---0---|-3--------3-----3--3---/6---6---|
|
| |-3-| |-3-| |-3-| |-3-|   |--3--|  |--3--|  |-3--| |-3-|
| E E E E E E E E E E E E   E  E  E  E  E  E  E E  E E E E
|-------------------------|--------------------------------|
|-------------------------|--------------------------------|
|-------------------------|--------------------------------|
|-1p0-0-0-0-0-7-7-7-7-7-7-|-7s10-10-10-10-10-10s8--8-8-8-8-|
|-------------------------|--------------------------------|
|-------------------------|--------------------------------|


                           1.                           2.
  |3|   |-3-| |---3---|      |-3-| |-3-| |3|             |-3-| |-3-| |-3-| |-3-|
  E Q   Q   E Q   Q   Q      E E E E E E E Q   Q         E E E E E E E E E E E E
|-------------------------|---------------------------||--------------------------|
|-------------------------|--------------------------o||--------------------------|
|-------------------------|---------------------------||--------------------------|
|-6s5---5---5-5---5---5---|-/8-8-8-8-8-8-8-7---7------||-------------------4------|
|-6s5---5---5-5---5---5---|-/8-8-8-8-8-8-8-7---7-----o||-------------5-------6-3--|
|-6s5---5---5-5---5---5---|-/8-8-8-8-8-8-8-7---7------||-3-5-3-6-5-3---6-5--------|
|
| |-3-| |-3-| |-3-| |-3-|    |-3-| |-3-| |-3-| |-3-|     |-3-| |-3-| |-3-|
| E E E E E E E E E E E E    E E E E E E E E E E E E     E E E E E E E E E Q
|-------------------------|---------------------------||--------------------------|
|-------------------------|--------------------------o||--------------------------|
|-------------------------|---------------------------||--------------------------|
|-8s5-5-5-5-5-5-5-5-5-5-5-|--0-0-0-0-0-0-0-0-0-0-0-0--||--------------------------|
|-------------------------|--------------------------o||-------------5------------|
|-------------------------|---------------------------||-3-5-3-6-5-3---6-5--------|


    Gtrs I, II
    PM---------------------------------------------
    |-3-| |-3-| |3| |-3-|   |-3-| |-3-| |3| |-3-|
    E E E E E E Q E E E E   E E E E E E Q E E E E
||------------------------|-----------------------|
||o-----------------------|-----------------------|
||------------------------|-----------------------|
||------------------------|-----------------------|
||o-----------------------|-----------------------|
||--0-0-0-0---0---0-0-0-0-|-0-0-0-0---0---0-0-0-0-|


 ---------------------------------------|
  |-3-| |-3-| |3| |-3-|   |-3-| |-3-| |3| |-3-|
  E E E E E E Q E E E E   E E E E E E Q E E E E
|-----------------------|---------------------------||
|-----------------------|--------------------------o||
|-----------------------|---------------------------||
|-----------------------|-----------------4---------||
|-----------------------|-------------------6-3----o||
|-0-0-0-0---0---0-0-0-0-|-0-0-0-0---0---0-----------||


    Gtr I
    PM-------------------------------------------------
    |-3-| |-3-| |-3-| |-3-|   |-3-| |-3-| |-3-| |-3-|
    E E E E E E Q   E E E E   E E E E E E Q   E E E E
||--------------------------|-------------------------|
||o-------------------------|-------------------------|
||--------------------------|-------------------------|
||--------------------------|-------------------------|
||o-------------------------|-------------------------|
||--0-0-0-0---0-----0-0-0-0-|-0-0-0-0---0-----0-0-0-0-|
|
|   Gtr II
|   |-3-| |-3-| |-3-| |-3-|   |-3-| |-3-| |-3-| |-3-|
|   E E E E E E E E E E E E   E E E E E E E E E E E E
||--------------------------|-------------------------|
||o-------------------------|-------------------------|
||--------------------------|-------------------------|
||--------------------------|-------------------------|
||o-------------------------|-------------------------|
||--0-1-0-3-0-4-0-1-0-4-3-1-|-0-1-0-3-0-4-0-1-0-4-3-1-|


 -------------------------------------------|
  |-3-| |-3-| |-3-| |-3-|   |-3-| |-3-| |-3-| |-3-|
  E E E E E E Q   E E E E   E E E E E E Q   E E E E
|-------------------------|-----------------------------||
|-------------------------|----------------------------o||
|-------------------------|-----------------------------||
|-------------------------|-------------------4---------||
|-------------------------|---------------------6-3----o||
|-0-0-0-0---0-----0-0-0-0-|-0-0-0-0---0-----0-----------||
|
| |-3-| |-3-| |-3-| |-3-|   |-3-| |-3-| |-3-| |-3-|
| E E E E E E E E E E E E   E E E E E E E E E E E E
|-------------------------|-----------------------------||
|-------------------------|----------------------------o||
|-------------------------|-----------------------------||
|-------------------------|-----------------------------||
|-------------------------|----------------------------o||
|-0-1-0-3-0-4-0-1-0-4-3-1-|-0-1-0-3-0-4-0-1-0-4-3-1-----||


  Gtrs I, II
  |-3-| |-3-| |-3-| |-3-|   |-3-| |-3-| |-3-| |-3-|
  E E E E E E E E E E E E   E E E E E E E E E E E E
|-------------------------|-------------------------|
|-------------------------|-------------------------|
|-------------------------|-------------------------|
|-------------------------|-------------------------|
|-------------------------|-------------------------|
|-0-1-0-3-0-4-0-1-0-4-3-1-|-0-1-0-3-0-4-0-1-0-4-3-1-|


  PM----------------------------------------------|
  |-3-| |-3-| |-3-| |-3-|   |-3-| |-3-| |-3-| |-3-|
  E E E E E E E E E E E E   E E E E E E E E E E E E
|-------------------------|----------------------------|
|-------------------------|----------------------------|
|-------------------------|----------------------------|
|-------------------------|----------------------------|
|-0-1-0-3-0-4-0-1-0-4-3-1-|-0-1-0-3-0-4-0-1-0-4-3-1----|
|-0-1-0-3-0-4-0-1-0-4-3-1-|-0-1-0-3-0-4-0-1-0-4-3-1----|


    Gtr I
          |-3-| |---3---|              |--3--|  |---3----|
    Q     Q   E Q   Q   Q     Q        Q     E  Q    Q   Q
||--------------------------|--------------------------------|
||o-------------------------|--------------------------------|
||--------------------------|--------------------------------|
||--0-----0---0-0---0---0---|-3--------3-----3--3---/6---6---|
||o-0-----0---0-0---0---0---|-3--------3-----3--3---/6---6---|
||--0-----0---0-0---0---0---|-3--------3-----3--3---/6---6---|
|
|   Gtr II
|   |-3-| |-3-| |-3-| |-3-|   |--3--|  |--3--|  |-3--| |-3-|
|   E E E E E E E E E E E E   E  E  E  E  E  E  E E  E E E E
||--------------------------|--------------------------------|
||o-------------------------|--------------------------------|
||--------------------------|--------------------------------|
||--0-0-0-0-0-0-7-7-7-7-7-7-|-7s10-10-10-10-10-10s8--8-8-8-8-|
||o-------------------------|--------------------------------|
||--------------------------|--------------------------------|


  |3|   |-3-| |---3---|     |3|   |-3-| |-3-| |-3-|
  E Q   Q   E Q   Q   Q     E Q   Q   E Q   E E E E
|-------------------------|----------------------------|
|-------------------------|----------------------------|
|-------------------------|----------------------------|
|-6s5---5---5-5---5---5---|-5s4---4---4-4---1-1-1-1----|
|-6s5---5---5-5---5---5---|-5s4---4---4-4---1-1-1-1----|
|-6s5---5---5-5---5---5---|-5s4---4---4-4---1-1-1-1----|
|
| |-3-| |-3-| |-3-| |-3-|   |-3-| |-3-| |-3-| |-3-|
| E E E E E E E E E E E E   E E E E E E E E E E E E
|-------------------------|----------------------------|
|-------------------------|----------------------------|
|-------------------------|----------------------------|
|-8s5-5-5-5-5-5-5-5-5-5-5-|-5s4-4-4-4-4-4s1-1-1-1-1----|
|-------------------------|----------------------------|
|-------------------------|----------------------------|


        |-3-| |---3---|              |--3--|  |---3----|
  Q     Q   E Q   Q   Q     Q        Q     E  Q    Q   Q
|-------------------------|--------------------------------|
|-------------------------|--------------------------------|
|-------------------------|--------------------------------|
|-0-----0---0-0---0---0---|-3--------3-----3--3---/6---6---|
|-0-----0---0-0---0---0---|-3--------3-----3--3---/6---6---|
|-0-----0---0-0---0---0---|-3--------3-----3--3---/6---6---|
|
| |-3-| |-3-| |-3-| |-3-|   |--3--|  |--3--|  |-3--| |-3-|
| E E E E E E E E E E E E   E  E  E  E  E  E  E E  E E E E
|-------------------------|--------------------------------|
|-------------------------|--------------------------------|
|-------------------------|--------------------------------|
|-1p0-0-0-0-0-7-7-7-7-7-7-|-7s10-10-10-10-10-10s8--8-8-8-8-|
|-------------------------|--------------------------------|
|-------------------------|--------------------------------|


                           1.                           2.
  |3|   |-3-| |---3---|      |-3-| |-3-| |3|             |-3-| |-3-| |-3-| |-3-|
  E Q   Q   E Q   Q   Q      E E E E E E E Q   Q         E E E E E E E E E E E E
|-------------------------|---------------------------||--------------------------|
|-------------------------|--------------------------o||--------------------------|
|-------------------------|---------------------------||--------------------------|
|-6s5---5---5-5---5---5---|-/8-8-8-8-8-8-8-7---7------||-----------------------3--|
|-6s5---5---5-5---5---5---|-/8-8-8-8-8-8-8-7---7-----o||-------------5-----6-5----|
|-6s5---5---5-5---5---5---|-/8-8-8-8-8-8-8-7---7------||-3-5-3-6-5-3---6-5--------|
|
| |-3-| |-3-| |-3-| |-3-|    |-3-| |-3-| |-3-| |-3-|     |-3-| |-3-| |-3-| |-3-|
| E E E E E E E E E E E E    E E E E E E E E E E E E     E E E E E E E E E E E E
|-------------------------|---------------------------||--------------------------|
|-------------------------|--------------------------o||--------------------------|
|-------------------------|---------------------------||--------------------------|
|-8s5-5-5-5-5-5-5-5-5-5-5-|--0-0-0-0-0-0-0-0-0-0-0-0--||-----------------------3--|
|-------------------------|--------------------------o||-------------5-----6-5----|
|-------------------------|---------------------------||-3-5-3-6-5-3---6-5--------|


  Gtr I
  PM  PM  PM  PM  PM    PM--|   PM  PM  PM  PM    PM-
  |-3-| |-3-| |-3-| |-3-|   |-3-| |-3-| |-3-| |-3-|
  E E E E E E E E E E E E   E E E E E E E E E E E E
|-------------------------|-------------------------|
|-------------------------|-------------------------|
|-------------------------|-------------------------|
|-------------------------|-------------------------|
|---5---5---5---5---5-5---|---5---5---5---5---5-5---|
|-0---0---0---0---0-----0-|-0---0---0---0---0-----0-|


                          Gtrs I, II
 -|   PM  PM  PM  PM    PM--|
  |-3-| |-3-| |-3-| |-3-|   |-3-| |-3-| |-3-| |-3-|
  E E E E E E E E E E E E   E E E E E E E E E E E E
|-------------------------|----------------------------|
|-------------------------|----------------------------|
|-------------------------|----------------------------|
|-------------------------|----------------------------|
|---5---5---5---5---5-5---|---5---5-------5---5--------|
|-0---0---0---0---0-----0-|-6---6---6-3-4---4---3-1----|


    PM  PM  PM  PM  PM    PM--|   PM  PM  PM  PM    PM-
    |-3-| |-3-| |-3-| |-3-|   |-3-| |-3-| |-3-| |-3-|
    E E E E E E E E E E E E   E E E E E E E E E E E E
||--------------------------|-------------------------|
||o-------------------------|-------------------------|
||--------------------------|-------------------------|
||--------------------------|-------------------------|
||o---5---5---5---5---5-5---|---5---5---5---5---5-5---|
||--0---0---0---0---0-----0-|-0---0---0---0---0-----0-|


 -|   PM  PM  PM  PM    PM--|   PM  PM--|   PM  PM|
  |-3-| |-3-| |-3-| |-3-|   |-3-| |-3-| |-3-| |-3-|
  E E E E E E E E E E E E   E E E E E E E E E E E E
|-------------------------|-----------------------------||
|-------------------------|----------------------------o||
|-------------------------|-----------------------------||
|-------------------------|-----------------------------||
|---5---5---5---5---5-5---|---5---5-------5---5--------o||
|-0---0---0---0---0-----0-|-6---6---6-3-4---4---3-1-----||


  Gtr I
  PM  PM  PM  PM  PM    PM--|   PM  PM  PM  PM    PM-
  |-3-| |-3-| |-3-| |-3-|   |-3-| |-3-| |-3-| |-3-|
  E E E E E E E E E E E E   E E E E E E E E E E E E
|-------------------------|-------------------------|
|-------------------------|-------------------------|
|-------------------------|-------------------------|
|-------------------------|-------------------------|
|---5---5---5---5---5-5---|---5---5---5---5---5-5---|
|-0---0---0---0---0-----0-|-0---0---0---0---0-----0-|
|
| Gtr II
| PM  PM  PM  PM  PM    PM--|   PM  PM  PM  PM    PM-
| |-3-| |-3-| |-3-| |-3-|   |-3-| |-3-| |-3-| |-3-|
| E E E E E E E E E E E E   E E E E E E E E E E E E
|-------------------------|-------------------------|
|-------------------------|-------------------------|
|-------------------------|-------------------------|
|-------------------------|-------------------------|
|---5---5---5---5---8-8---|---5---5---5---5---8-8---|
|-0---0---0---0---0-----0-|-0---0---0---0---0-----0-|


 -|   PM  PM  PM  PM      PM
  |-3-| |-3-| |-3-|  |-3--|   |-3-| |-3-| |-3-| |-3-|
  E E E E E E E E E  E  E E   E E E E E E E E E E E E
|---------------------------|----------------------------|
|---------------------------|----------------------------|
|---------------------------|----------------------------|
|---------------------------|----------------------------|
|---5---5---5---5----5--5---|---5---5-------5---5--------|
|-0---0---0---0---0-------0-|-6---6---6-3-4---4---3-1----|
|
|-|   PM  PM  PM  PM      PM
| |-3-| |-3-| |-3-|  |-3--|   |-3-| |-3-| |-3-| |-3-|
| E E E E E E E E E  E  E E   E E E E E E E E E E E E
|---------------------------|----------------------------|
|---------------------------|----------------------------|
|---------------------------|----------------------------|
|---------------------------|----------------------------|
|---5---5---5---5---12-12---|---5---5-------5---5--------|
|-0---0---0---0---0-------0-|-6---6---6-3-4---4---3-1----|


    |-3-| |-3-| |-3-| |-3-|   |-3-| |-3-| |-3-| |-3-|
    E E E E E E E E E E E E   E E E E E E E E E E E E
||--------------------------|-------------------------|
||o-------------------------|-------------------------|
||--------------------------|-------------------------|
||--------------------------|-------------------------|
||o---5---5---5---5---5-5---|---5---5---5---5---5-5---|
||--0---0---0---0---0-----0-|-0---0---0---0---0-----0-|
|
|   PM-------------------------------------------------
|   |-3-| |-3-| |-3-| |-3-|   |-3-| |-3-| |-3-| |-3-|
|   E E E E E E E E E E E E   E E E E E E E E E E E E
||--------------------------|-------------------------|
||o-------------------------|-------------------------|
||--------------------------|-------------------------|
||--------------------------|-------------------------|
||o-------------------------|-------------------------|
||--0-0-0-0-0-0-0-0-0-0-0-0-|-3-3-3-3-3-3-3-3-6-6-6-6-|


                           1.,2.,3.                    4.
  |-3-| |-3-| |-3-| |-3-|   |-3-| |-3-| |-3-| |-3-|     |-3-| |-3-| |-3-| |3|
  E E E E E E E E E E E E   E E E E E E E E E E E E  4x E E E E E E E E E E Q
|-------------------------|--------------------------||------------------------|
|-------------------------|-------------------------o||------------------------|
|-------------------------|--------------------------||------------------------|
|-------------------------|--------------------------||------------------------|
|---5---5---5---5---5-5---|---5---5-------5---5-----o||---5---5-------5---6----|
|-0---0---0---0---0-----0-|-6---6---6-3-4---4---3-1--||-6---6---6-3-4---4------|
|
|-----------------------|
| |-3-| |-3-| |-3-| |-3-|   |-3-| |-3-| |-3-| |-3-|     |-3-| |-3-| |-3-| |3|
| E E E E E E E E E E E E   E E E E E E E E E E E E  4x E E E E E E E E E E Q
|-------------------------|--------------------------||------------------------|
|-------------------------|-------------------------o||------------------------|
|-------------------------|--------------------------||------------------------|
|-------------------------|--------------------------||------------------------|
|-------------------------|---5---5-------5---5-----o||---5---5-------5---6----|
|-6-5-5-5-5-5-5-5-5-5-5-5-|-6---6---6-3-4---4---3-1--||-6---6---6-3-4---4------|


    Gtr I
        PM---------|      PM    PM            PM---------|      PM    PM
     |--3--|  |--3--|  |--3--|  |--3--|    |--3--|  |--3--|  |--3--|  |--3--|
     E  E  E  E  E  E  E  E  E  E  E  E    E  E  E  E  E  E  E  E  E  E  E  E
||--------------------------------------|-------------------------------------|
||o-------------------------------------|-------------------------------------|
||--------------------------------------|-------------------------------------|
||---7-----------------7-----7-----7s=8-|--7-----------------7-----7-----7s=8-|
||o--5-----------------5-----5-----5s=6-|--5-----------------5-----5-----5s=6-|
||------0--0--0--0--0-----0-----0-------|-----0--0--0--0--0-----0-----0-------|
|
|      Gtr II
|    |--3--|  |--3--|  |--3--|  |--3--|    |--3--|  |--3--|  |--3--|  |--3--|
|    E  E  E  E  E  E  E  E  E  E  E  E    E  E  E  E  E  E  E  E  E  E  E  E
||--------------------------------------|-------------------------------------|
||o-------------------------------------|-------------------------------------|
||--14-14-14-14-14-14-14-14-14-14-14-14-|-14-14-14-14-14-14-14-14-14-14-14-14-|
||--------------------------------------|-------------------------------------|
||o-------------------------------------|-------------------------------------|
||--------------------------------------|-------------------------------------|
|
|   Gtr III
|    |--3--|  |--3--|  |--3--|  |--3--|    |--3--|  |--3--|  |--3--|  |--3--|
|    E  E  E  E  E  E  E  E  E  E  E  E    E  E  E  E  E  E  E  E  E  E  E  E
||--------------------------------------|-------------------------------------|
||o-18-18-18-18-18-18-18-18-18-18-18-18-|-18-18-18-18-18-18-18-18-18-18-18-18-|
||--------------------------------------|-------------------------------------|
||--------------------------------------|-------------------------------------|
||o-------------------------------------|-------------------------------------|
||--------------------------------------|-------------------------------------|


      PM---------|      PM    PM            PM---------|      PM|      PM|
   |--3--|  |--3--|  |--3--|  |--3--|    |--3--|  |--3--|  |--3--|  |--3--|
   E  E  E  E  E  E  E  E  E  E  E  E    E  E  E  E  E  E  E  E  E  E  E  E
|-------------------------------------|----------------------------------------|
|-------------------------------------|----------------------------------------|
|-------------------------------------|--8-------------------------------------|
|--6-----------------7-----7-----7s=8-|--6----------------10--------8----------|
|--4-----------------5-----5-----5s=6-|--------------------8--------6----------|
|-----0--0--0--0--0-----0-----0-------|-----0--0--0--0--0-----0--0-----0--0----|
|
|  |--3--|  |--3--|  |--3--|  |--3--|    |--3--|  |--3--|  |--3--|  |--3--|
|  E  E  E  E  E  E  E  E  E  E  E  E    E  E  E  E  E  E  E  E  E  E  E  E
|-------------------------------------|----------------------------------------|
|-------------------------------------|----------------------------------------|
|-13-13-13-13-13-13-13-13-13-13-13-13-|-10-10-10-10-10-10-10-10-10-10-10-10----|
|-------------------------------------|----------------------------------------|
|-------------------------------------|----------------------------------------|
|-------------------------------------|----------------------------------------|
|
|  |--3--|  |--3--|  |--3--|  |--3--|    |--3--|  |--3--|  |--3--|  |--3--|
|  E  E  E  E  E  E  E  E  E  E  E  E    E  E  E  E  E  E  E  E  E  E  E  E
|-------------------------------------|----------------------------------------|
|-17-17-17-17-17-17-17-17-17-17-17-17-|-13-13-13-13-13-13-13-13-13-13-13-13----|
|-------------------------------------|----------------------------------------|
|-------------------------------------|----------------------------------------|
|-------------------------------------|----------------------------------------|
|-------------------------------------|----------------------------------------|


      PM---------|      PM    PM            PM---------|      PM    PM
   |--3--|  |--3--|  |--3--|  |--3--|    |--3--|  |--3--|  |--3--|  |--3--|
   E  E  E  E  E  E  E  E  E  E  E  E    E  E  E  E  E  E  E  E  E  E  E  E
|-------------------------------------|-------------------------------------|
|-------------------------------------|-------------------------------------|
|-------------------------------------|-------------------------------------|
|--7-----------------7-----7-----7s=8-|--7-----------------7-----7-----7s=8-|
|--5-----------------5-----5-----5s=6-|--5-----------------5-----5-----5s=6-|
|-----0--0--0--0--0-----0-----0-------|-----0--0--0--0--0-----0-----0-------|
|
|  |--3--|  |--3--|  |--3--|  |--3--|    |--3--|  |--3--|  |--3--|  |--3--|
|  E  E  E  E  E  E  E  E  E  E  E  E    E  E  E  E  E  E  E  E  E  E  E  E
|-------------------------------------|-------------------------------------|
|-------------------------------------|-------------------------------------|
|-14-14-14-14-14-14-14-14-14-14-14-14-|-14-14-14-14-14-14-14-14-14-14-14-14-|
|-------------------------------------|-------------------------------------|
|-------------------------------------|-------------------------------------|
|-------------------------------------|-------------------------------------|
|
|  |--3--|  |--3--|  |--3--|  |--3--|    |--3--|  |--3--|  |--3--|  |--3--|
|  E  E  E  E  E  E  E  E  E  E  E  E    E  E  E  E  E  E  E  E  E  E  E  E
|-------------------------------------|-------------------------------------|
|-18-18-18-18-18-18-18-18-18-18-18-18-|-18-18-18-18-18-18-18-18-18-18-18-18-|
|-------------------------------------|-------------------------------------|
|-------------------------------------|-------------------------------------|
|-------------------------------------|-------------------------------------|
|-------------------------------------|-------------------------------------|


      PM---------|      PM    PM
   |--3--|  |--3--|  |--3--|  |--3--|    |--3--|  |--3--|  |--3--|  |--3--|
   E  E  E  E  E  E  E  E  E  E  E  E    E  E  E  E  E  E  E  E  E  E  E  E
|-------------------------------------|-----------------------------------------||
|-------------------------------------|----------------------------------------o||
|-------------------------------------|-----------------------------------------||
|--6-----------------7-----7-----7s=8-|-----------------------------------3-----||
|--4-----------------5-----5-----5s=6-|--------------------5--------6--5-------o||
|-----0--0--0--0--0-----0-----0-------|--3--5--3--6--5--3-----6--5--------------||
|
|  |--3--|  |--3--|  |--3--|  |--3--|    |--3--|  |--3--|  |--3--|  |--3--|
|  E  E  E  E  E  E  E  E  E  E  E  E    E  E  E  E  E  E  E  E  E  E  E  E
|-------------------------------------|-----------------------------------------||
|-------------------------------------|----------------------------------------o||
|-13-13-13-13-13-13-13-13-13-13-13-13-|-17-17-17-17-17-17-17-17-17-17-17-17-----||
|-------------------------------------|-----------------------------------------||
|-------------------------------------|----------------------------------------o||
|-------------------------------------|-----------------------------------------||
|
|  |--3--|  |--3--|  |--3--|  |--3--|    |--3--|  |--3--|  |--3--|  |--3--|
|  E  E  E  E  E  E  E  E  E  E  E  E    E  E  E  E  E  E  E  E  E  E  E  E
|-------------------------------------|-----------------------------------------||
|-17-17-17-17-17-17-17-17-17-17-17-17-|-13-13-13-13-13-13-13-13-13-13-13-13----o||
|-------------------------------------|-----------------------------------------||
|-------------------------------------|-----------------------------------------||
|-------------------------------------|----------------------------------------o||
|-------------------------------------|-----------------------------------------||


  Gtrs I, II
  |-3-|  |-3-|  |-3-| |-3-|   |-3-| |-3-| |-3-| |-3-|
  E E E  E E E  E E E E E E   E E E E E E E E E E E E
|---------------------------|-------------------------|
|---------------------------|-------------------------|
|---------------------------|-------------------------|
|--------------15-----------|-------------------------|
|-------12------------------|-------------------------|
|-0-0-0----0-0----0-0-0-0-0-|-0-0-0-0-0-0-0-0-0-0-0-0-|


  |-3-|  |-3-|  |-3-| |-3-|   |-3-| |-3-| |-3-| |-3-|
  E E E  E E E  E E E E E E   E E E E E E E E E E E E
|---------------------------|----------------------------|
|---------------------------|----------------------------|
|---------------------------|----------------------------|
|--------------15-----------|----------------------------|
|-------11------------------|----------------------------|
|-0-0-0----0-0----0-0-0-0-0-|-0-0-0-0-0-0-0-0-0-0-0-0----|


  |-3-|  |-3-|  |-3-| |-3-|   |-3-| |-3-| |-3-| |-3-|
  E E E  E E E  E E E E E E   E E E E E E E E E E E E
|---------------------------|-------------------------|
|---------------------------|-------------------------|
|---------------------------|-------------------------|
|--------------15-----------|-------------------------|
|-------13------------------|-------------------------|
|-0-0-0----0-0----0-0-0-0-0-|-0-0-0-0-0-0-0-0-0-0-0-0-|


  |-3-| |-3-|  |-3-| |-3-|   |-3-| |-3-| |-3-| |-3-|
  E E E E E E  E E E E E E   E E E E E E E E E E E E
|--------------------------|----------------------------|
|--------------------------|----------------------------|
|--------------------------|----------------------------|
|-------------12-----------|-----------------------3----|
|-------8------------------|-------------5-----6-5------|
|-0-0-0---0-0----0-0-0-0-0-|-3-5-3-6-5-3---6-5----------|


    Gtr I
          |-3-| |---3---|              |--3--|  |---3----|
    Q     Q   E Q   Q   Q     Q        Q     E  Q    Q   Q
||--------------------------|--------------------------------|
||o-------------------------|--------------------------------|
||--------------------------|--------------------------------|
||--0-----0---0-0---0---0---|-3--------3-----3--3---/6---6---|
||o-0-----0---0-0---0---0---|-3--------3-----3--3---/6---6---|
||--0-----0---0-0---0---0---|-3--------3-----3--3---/6---6---|
|
|   Gtr II
|   |-3-| |-3-| |-3-| |-3-|   |--3--|  |--3--|  |-3--| |-3-|
|   E E E E E E E E E E E E   E  E  E  E  E  E  E E  E E E E
||--------------------------|--------------------------------|
||o-------------------------|--------------------------------|
||--------------------------|--------------------------------|
||--0-0-0-0-0-0-7-7-7-7-7-7-|-7s10-10-10-10-10-10s8--8-8-8-8-|
||o-------------------------|--------------------------------|
||--------------------------|--------------------------------|


  |3|   |-3-| |---3---|     |3|   |-3-| |-3-| |-3-|
  E Q   Q   E Q   Q   Q     E Q   Q   E Q   E E E E
|-------------------------|----------------------------|
|-------------------------|----------------------------|
|-------------------------|----------------------------|
|-6s5---5---5-5---5---5---|-5s4---4---4-4---1-1-1-1----|
|-6s5---5---5-5---5---5---|-5s4---4---4-4---1-1-1-1----|
|-6s5---5---5-5---5---5---|-5s4---4---4-4---1-1-1-1----|
|
| |-3-| |-3-| |-3-| |-3-|   |-3-| |-3-| |-3-| |-3-|
| E E E E E E E E E E E E   E E E E E E E E E E E E
|-------------------------|----------------------------|
|-------------------------|----------------------------|
|-------------------------|----------------------------|
|-8s5-5-5-5-5-5-5-5-5-5-5-|-5s4-4-4-4-4-4s1-1-1-1-1----|
|-------------------------|----------------------------|
|-------------------------|----------------------------|


        |-3-| |---3---|              |--3--|  |---3----|
  Q     Q   E Q   Q   Q     Q        Q     E  Q    Q   Q
|-------------------------|--------------------------------|
|-------------------------|--------------------------------|
|-------------------------|--------------------------------|
|-0-----0---0-0---0---0---|-3--------3-----3--3---/6---6---|
|-0-----0---0-0---0---0---|-3--------3-----3--3---/6---6---|
|-0-----0---0-0---0---0---|-3--------3-----3--3---/6---6---|
|
| |-3-| |-3-| |-3-| |-3-|   |--3--|  |--3--|  |-3--| |-3-|
| E E E E E E E E E E E E   E  E  E  E  E  E  E E  E E E E
|-------------------------|--------------------------------|
|-------------------------|--------------------------------|
|-------------------------|--------------------------------|
|-1p0-0-0-0-0-7-7-7-7-7-7-|-7s10-10-10-10-10-10s8--8-8-8-8-|
|-------------------------|--------------------------------|
|-------------------------|--------------------------------|


                           1.                           2.
  |3|   |-3-| |---3---|      |-3-| |-3-| |3|             |-3-| |-3-| |-3-| |-3-|
  E Q   Q   E Q   Q   Q      E E E E E E E Q   Q         E E E E E E E E E E E E
|-------------------------|---------------------------||--------------------------|
|-------------------------|--------------------------o||--------------------------|
|-------------------------|---------------------------||--------------------------|
|-6s5---5---5-5---5---5---|-/8-8-8-8-8-8-8-7---7------||-----------------------3--|
|-6s5---5---5-5---5---5---|-/8-8-8-8-8-8-8-7---7-----o||-------------5-----6-5----|
|-6s5---5---5-5---5---5---|-/8-8-8-8-8-8-8-7---7------||-3-5-3-6-5-3---6-5--------|
|
| |-3-| |-3-| |-3-| |-3-|    |-3-| |-3-| |-3-| |-3-|     |-3-| |-3-| |-3-| |-3-|
| E E E E E E E E E E E E    E E E E E E E E E E E E     E E E E E E E E E E E E
|-------------------------|---------------------------||--------------------------|
|-------------------------|--------------------------o||--------------------------|
|-------------------------|---------------------------||--------------------------|
|-8s5-5-5-5-5-5-5-5-5-5-5-|--0-0-0-0-0-0-0-0-0-0-0-0--||-----------------------3--|
|-------------------------|--------------------------o||-------------5-----6-5----|
|-------------------------|---------------------------||-3-5-3-6-5-3---6-5--------|


    Gtr I
          |-3-| |---3---|              |--3--|  |---3----|
    Q     Q   E Q   Q   Q     Q        Q     E  Q    Q   Q
||--------------------------|--------------------------------|
||o-------------------------|--------------------------------|
||--------------------------|--------------------------------|
||--0-----0---0-0---0---0---|-3--------3-----3--3---/6---6---|
||o-0-----0---0-0---0---0---|-3--------3-----3--3---/6---6---|
||--0-----0---0-0---0---0---|-3--------3-----3--3---/6---6---|
|
|   Gtr II
|   |-3-| |-3-| |-3-| |-3-|   |--3--|  |--3--|  |-3--| |-3-|
|   E E E E E E E E E E E E   E  E  E  E  E  E  E E  E E E E
||--------------------------|--------------------------------|
||o-------------------------|--------------------------------|
||--------------------------|--------------------------------|
||--0-0-0-0-0-0-7-7-7-7-7-7-|-7s10-10-10-10-10-10s8--8-8-8-8-|
||o-------------------------|--------------------------------|
||--------------------------|--------------------------------|


  |3|   |-3-| |---3---|     |3|   |-3-| |-3-| |-3-|
  E Q   Q   E Q   Q   Q     E Q   Q   E Q   E E E E
|-------------------------|----------------------------|
|-------------------------|----------------------------|
|-------------------------|----------------------------|
|-6s5---5---5-5---5---5---|-5s4---4---4-4---1-1-1-1----|
|-6s5---5---5-5---5---5---|-5s4---4---4-4---1-1-1-1----|
|-6s5---5---5-5---5---5---|-5s4---4---4-4---1-1-1-1----|
|
| |-3-| |-3-| |-3-| |-3-|   |-3-| |-3-| |-3-| |-3-|
| E E E E E E E E E E E E   E E E E E E E E E E E E
|-------------------------|----------------------------|
|-------------------------|----------------------------|
|-------------------------|----------------------------|
|-8s5-5-5-5-5-5-5-5-5-5-5-|-5s4-4-4-4-4-4s1-1-1-1-1----|
|-------------------------|----------------------------|
|-------------------------|----------------------------|


        |-3-| |---3---|              |--3--|  |---3----|
  Q     Q   E Q   Q   Q     Q        Q     E  Q    Q   Q
|-------------------------|--------------------------------|
|-------------------------|--------------------------------|
|-------------------------|--------------------------------|
|-0-----0---0-0---0---0---|-3--------3-----3--3---/6---6---|
|-0-----0---0-0---0---0---|-3--------3-----3--3---/6---6---|
|-0-----0---0-0---0---0---|-3--------3-----3--3---/6---6---|
|
| |-3-| |-3-| |-3-| |-3-|   |--3--|  |--3--|  |-3--| |-3-|
| E E E E E E E E E E E E   E  E  E  E  E  E  E E  E E E E
|-------------------------|--------------------------------|
|-------------------------|--------------------------------|
|-------------------------|--------------------------------|
|-1p0-0-0-0-0-7-7-7-7-7-7-|-7s10-10-10-10-10-10s8--8-8-8-8-|
|-------------------------|--------------------------------|
|-------------------------|--------------------------------|


                           1.                           2.
  |3|   |-3-| |---3---|      |-3-| |-3-| |3|             |-3-| |-3-| |-3-| |-3-|
  E Q   Q   E Q   Q   Q      E E E E E E E Q   Q         E E E E E E E E E E E E
|-------------------------|---------------------------||--------------------------|
|-------------------------|--------------------------o||--------------------------|
|-------------------------|---------------------------||--------------------------|
|-6s5---5---5-5---5---5---|-/8-8-8-8-8-8-8-7---7------||-----------------------3--|
|-6s5---5---5-5---5---5---|-/8-8-8-8-8-8-8-7---7-----o||-------------5-----6-5----|
|-6s5---5---5-5---5---5---|-/8-8-8-8-8-8-8-7---7------||-3-5-3-6-5-3---6-5--------|
|
| |-3-| |-3-| |-3-| |-3-|    |-3-| |-3-| |-3-| |-3-|     |-3-| |-3-| |-3-| |-3-|
| E E E E E E E E E E E E    E E E E E E E E E E E E     E E E E E E E E E E E E
|-------------------------|---------------------------||--------------------------|
|-------------------------|--------------------------o||--------------------------|
|-------------------------|---------------------------||--------------------------|
|-8s5-5-5-5-5-5-5-5-5-5-5-|--0-0-0-0-0-0-0-0-0-0-0-0--||-----------------------3--|
|-------------------------|--------------------------o||-------------5-----6-5----|
|-------------------------|---------------------------||-3-5-3-6-5-3---6-5--------|


  Gtrs I, II
  |3|
  Q E H.
|-----------*|
|-----------*|
|-----------*|
|-0---------*|
|-0---------*|
|-0---------*|


Duration Legend
---------------
W - whole; H - half; Q - quarter; E - 8th; S - 16th; T - 32nd; X - 64th; a - acciaccatura
+ - note tied to previous; . - note dotted; .. - note double dotted
Uncapitalized letters represent notes that are staccato (1/2 duration)
Irregular groupings are notated above the duration line
Duration letters will always appear directly above the note/fret number it represents the
duration for.  Duration letters with no fret number below them represent rests.  Multi-
bar rests are notated in the form Wxn, where n is the number of bars to rest for.  Low
melody durations appear below the staff

Tablature Legend
----------------
 h   - hammer-on
 p   - pull-off
 b   - bend
 pb  - pre-bend
 r   - bend release (if no number after the r, then release immediately)
 /\  - slide into or out of (from/to "nowhere")
 s   - legato slide
 S   - shift slide
  - natural harmonic
[n]  - artificial harmonic
n(n) - tapped harmonic
 ~   - vibrato
 tr  - trill
 T   - tap
 TP  - trem. picking
 PM  - palm muting
\n/  - tremolo bar dip; n = amount to dip
 \n  - tremolo bar down
 n/  - tremolo bar up
/n\  - tremolo bar inverted dip
 =   - hold bend; also acts as connecting device for hammers/pulls
 <>  - volume swell (louder/softer)
 x   - on rhythm slash represents muted slash
 o   - on rhythm slash represents single note slash

Misc Legend
-----------
 |  - bar
||  - double bar
||o - repeat start
o|| - repeat end
*|  - double bar (ending)
 :  - bar (freetime)
 $  - Segno
 &  - Coda
Tempo markers -  = BPM(8/16=s8/s16), where s8 = swing 8ths, s16 = swing 16ths
Добавлено: 25.04.2012
Другие материалы по этой песне:

Страница создана 01.04.2012
http://primanota.ru/lamb-of-god/shoulder-of-your-god-chords.htm
Привет, Гость.
Предлагаем пройти революционный курс по гитаре.
Подарок от PrimaNota.Ru, забирай!