PrimaNota.ru - самый крупный в мире бесплатный архив песенных текстов, аккордов, табулатур и нот


Lamb Of God - The Subtle Arts Of Murder And Persusian - таба, бас-таба, видео

Регистрация Запомнить меня
Войти через:  Facebook Google Twitter Vk Yandex Mail.ru

Lamb Of God - The Subtle Arts Of Murder And Persusian - таба, бас-таба, видео

Печатать
Просмотров: 113
             The Subtle Arts of Murder and Persuasion                     


                                                                     Lamb of God
Mark Morton



      S  S  S  S  S  S  S  S  S  S  S  S  S  S  
D||--15-15-------------------------------------|
B||--------17-17-15-15-------15-15-17-17-15-15-|
G||--------------------14-14-------------------|
D||--------------------------------------------|
A||--------------------------------------------|
D||--------------------------------------------|


   S  S  S  S  S  S  S  S  S  S  S  S  S  S  
--15-15-------------------------------------|
--------17-17-15-15-------15-15-17-17-15-15-|
--------------------14-14-------------------|
--------------------------------------------|
--------------------------------------------|
--------------------------------------------|


   S  S  S  S  S  S  S  S  S  S  S  S  
--13-13-------13-13-------------------|
--------15-15-------15-15-------15-15-|
--------------------------17-17-------|
--------------------------------------|
--------------------------------------|
--------------------------------------|


   S  S  S  S  S  S  S  S  S  S  S  S  S  S  S  S  
--13-13-------13-13-------------------13-13-------|
--------15-15-------15-15-------15-15-------15-15-|
--------------------------17-17-------------------|
--------------------------------------------------|
--------------------------------------------------|
--------------------------------------------------|


   S  S  S  S  S  S  S  S  S  S  S  S  S  S  
--15-15-------------------------------------|
--------17-17-15-15-------15-15-17-17-15-15-|
--------------------14-14-------------------|
--------------------------------------------|
--------------------------------------------|
--------------------------------------------|


   S  S  S  S  S  S  S  S  S  S  S  S  S  S  
--15-15-------------------------------------|
--------17-17-15-15-------15-15-17-17-15-15-|
--------------------14-14-------------------|
--------------------------------------------|
--------------------------------------------|
--------------------------------------------|


   S  S  S  S  S  S  S  S  S  S  S  S  
--13-13-------13-13-------------------|
--------15-15-------15-15-------15-15-|
--------------------------17-17-------|
--------------------------------------|
--------------------------------------|
--------------------------------------|


   S  S  S  S  S  S  S  S  S  S  S  S  S  S  S  S  
--13-13-------13-13-------------------13-13-------|
--------15-15-------15-15-------15-15-------15-15-|
--------------------------17-17-------------------|
--------------------------------------------------|
--------------------------------------------------|
--------------------------------------------------|


   S  S  S  S  S  S  S  S  S  S  S  S  S  S  
--15-15-------------------------------------|
--------17-17-15-15-------15-15-17-17-15-15-|
--------------------14-14-------------------|
--------------------------------------------|
--------------------------------------------|
--------------------------------------------|


   S  S  S  S  S  S  S  S  S  S  S  S  S  S  
--15-15-------------------------------------|
--------17-17-15-15-------15-15-17-17-15-15-|
--------------------14-14-------------------|
--------------------------------------------|
--------------------------------------------|
--------------------------------------------|


   S  S  S  S  S  S  S  S  S  S  S  S  
--13-13-------13-13-------------------|
--------15-15-------15-15-------15-15-|
--------------------------17-17-------|
--------------------------------------|
--------------------------------------|
--------------------------------------|


   S  S  S  S  S  S  S  S  S  S  S  S  S  S  S  S  
--13-13-------13-13-------------------13-13-------|
--------15-15-------15-15-------15-15-------15-15-|
--------------------------17-17-------------------|
--------------------------------------------------|
--------------------------------------------------|
--------------------------------------------------|


   S  S  S  S  S  S  S  S  S  S  S  S  S  S  
--15-15-------------------------------------|
--------17-17-15-15-------15-15-17-17-15-15-|
--------------------14-14-------------------|
--------------------------------------------|
--------------------------------------------|
--------------------------------------------|


   S  S  S  S  S  S  S  S  S  S  S  S  S  S  
--15-15-------------------------------------|
--------17-17-15-15-------15-15-17-17-15-15-|
--------------------14-14-------------------|
--------------------------------------------|
--------------------------------------------|
--------------------------------------------|


   S  S  S  S  S  S  S  S  S  S  S  S  
--13-13-------13-13-------------------|
--------15-15-------15-15-------15-15-|
--------------------------17-17-------|
--------------------------------------|
--------------------------------------|
--------------------------------------|


   S  S  S  S  S  S  S  S  S  S  S  S  S  S  S  S  
--13-13-------13-13-------------------13-13-------|
--------15-15-------15-15-------15-15-------15-15-|
--------------------------17-17-------------------|
--------------------------------------------------|
--------------------------------------------------|
--------------------------------------------------|


   S  S  S  S  S  S  S  S  S  S  S  S  S  S  
--15-15-------------------------------------|
--------17-17-15-15-------15-15-17-17-15-15-|
--------------------14-14-------------------|
--------------------------------------------|
--------------------------------------------|
--------------------------------------------|


   S  S  S  S  S  S  S  S  S  S  S  S  S  S  
--15-15-------------------------------------|
--------17-17-15-15-------15-15-17-17-15-15-|
--------------------14-14-------------------|
--------------------------------------------|
--------------------------------------------|
--------------------------------------------|


   S  S  S  S  S  S  S  S  S  S  S  S  
--13-13-------13-13-------------------|
--------15-15-------15-15-------15-15-|
--------------------------17-17-------|
--------------------------------------|
--------------------------------------|
--------------------------------------|


   S  S  S  S  S  S  S  S  S  S  S  S  S  S  S  S  
--13-13-------13-13-------------------13-13-------|
--------15-15-------15-15-------15-15-------15-15-|
--------------------------17-17-------------------|
--------------------------------------------------|
--------------------------------------------------|
--------------------------------------------------|


   S  S  S  S  S  S  S  S  S  S  S  S  S  S  
--15-15-------------------------------------|
--------17-17-15-15-------15-15-17-17-15-15-|
--------------------14-14-------------------|
--------------------------------------------|
--------------------------------------------|
--------------------------------------------|


   S  S  S  S  S  S  S  S  S  S  S  S  S  S  
--15-15-------------------------------------|
--------17-17-15-15-------15-15-17-17-15-15-|
--------------------14-14-------------------|
--------------------------------------------|
--------------------------------------------|
--------------------------------------------|


   S  S  S  S  S  S  S  S  S  S  S  S  
--13-13-------13-13-------------------|
--------15-15-------15-15-------15-15-|
--------------------------17-17-------|
--------------------------------------|
--------------------------------------|
--------------------------------------|


   S  S  S  S  S  S  S  S  S  S  S  S  S  S  S  S  
--13-13-------13-13-------------------13-13-------|
--------15-15-------15-15-------15-15-------15-15-|
--------------------------17-17-------------------|
--------------------------------------------------|
--------------------------------------------------|
--------------------------------------------------|


   S  S  S  S  S  S  S  S  S  S  S  S  S  S  
--15-15-------------------------------------|
--------17-17-15-15-------15-15-17-17-15-15-|
--------------------14-14-------------------|
--------------------------------------------|
--------------------------------------------|
--------------------------------------------|


   S  S  S  S  S  S  S  S  S  S  S  S  S  S  
--15-15-------------------------------------|
--------17-17-15-15-------15-15-17-17-15-15-|
--------------------14-14-------------------|
--------------------------------------------|
--------------------------------------------|
--------------------------------------------|


   S  S  S  S  S  S  S  S  S  S  S  S  
--13-13-------13-13-------------------|
--------15-15-------15-15-------15-15-|
--------------------------17-17-------|
--------------------------------------|
--------------------------------------|
--------------------------------------|


   S  S  S  S  S  S  S  S  S  S  S  S  S  S  S  S  
--13-13-------13-13-------------------13-13-------|
--------15-15-------15-15-------15-15-------15-15-|
--------------------------17-17-------------------|
--------------------------------------------------|
--------------------------------------------------|
--------------------------------------------------|


   S  S  S  S  S  S  S  S  S  S  S  S  S  S  
--15-15-------------------------------------|
--------17-17-15-15-------15-15-17-17-15-15-|
--------------------14-14-------------------|
--------------------------------------------|
--------------------------------------------|
--------------------------------------------|


   S  S  S  S  S  S  S  S  S  S  S  S  S  S  
--15-15-------------------------------------|
--------17-17-15-15-------15-15-17-17-15-15-|
--------------------14-14-------------------|
--------------------------------------------|
--------------------------------------------|
--------------------------------------------|


   S  S  S  S  S  S  S  S  S  S  S  S  
--13-13-------13-13-------------------|
--------15-15-------15-15-------15-15-|
--------------------------17-17-------|
--------------------------------------|
--------------------------------------|
--------------------------------------|


   S  S  S  S  S  S  S  S  S  S  S  S  S  S  S  S    S S E  S S Q    S S E   
--13-13-------13-13-------------------13-13-------|-------------------------|
--------15-15-------15-15-------15-15-------15-15-|-------------------------|
--------------------------17-17-------------------|-------------------------|
--------------------------------------------------|-------------------------|
--------------------------------------------------|--0-0----0-0------0-0----|
--------------------------------------------------|--0-0----0-0------0-0----|


  S S E  S S S E.  S S E     S S E  S S Q    S S    E  S S E  S S E  S S Q     
--------------------------|----------------------|----------------------------|
--------------------------|----------------------|----------------------------|
--------------------------|----------------------|----------------------------|
--------------------------|----------------------|----------------------------|
--0-0----0-0-0-----0-0----|--0-0----0-0------0-0-|-----0-0----0-0--------0----|
--0-0----0-0-0-----0-0----|--0-0----0-0------0-0-|-----0-0----0-0----0-0-0----|


  S S E  S S Q    S S E     S S E  S S S E.  S S E     S S E  S S Q    S S  
-------------------------|--------------------------|----------------------|
-------------------------|--------------------------|----------------------|
-------------------------|--------------------------|----------------------|
-------------------------|--------------------------|----------------------|
--0-0----0-0------0-0----|--0-0----0-0-0-----0-0----|--1-1----1-1------1-1-|
--0-0----0-0------0-0----|--0-0----0-0-0-----0-0----|--1-1----1-1------1-1-|


  E  S S E  S S E  S S Q       S S E  S S Q    S S E   
----------------------------|-------------------------|
----------------------------|-------------------------|
----------------------------|-------------------------|
----------------------------|-------------------------|
-----4-4----4-4--------1----|--0-0----0-0------0-0----|
-----4-4----4-4----0-0-1----|--0-0----0-0------0-0----|


  S S E  S S S E.  S S E     S S E  S S Q    S S    E  S S E  S S E  S S Q     
--------------------------|----------------------|----------------------------|
--------------------------|----------------------|----------------------------|
--------------------------|----------------------|----------------------------|
--------------------------|----------------------|----------------------------|
--0-0----0-0-0-----0-0----|--1-1----1-1------1-1-|-----4-4----4-4--------1----|
--0-0----0-0-0-----0-0----|--1-1----1-1------1-1-|-----4-4----4-4----0-0-1----|


  S S E  S S Q    S S E     S S E  S S S E.  S S E     S S E  S S Q    S S  
-------------------------|--------------------------|----------------------|
-------------------------|--------------------------|----------------------|
-------------------------|--------------------------|----------------------|
-------------------------|--------------------------|----------------------|
--0-0----0-0------0-0----|--0-0----0-0-0-----0-0----|--1-1----1-1------1-1-|
--0-0----0-0------0-0----|--0-0----0-0-0-----0-0----|--1-1----1-1------1-1-|


  E  S S E  S S E  S S Q       S S E  S S Q    S S E   
----------------------------|-------------------------|
----------------------------|-------------------------|
----------------------------|-------------------------|
----------------------------|-------------------------|
-----4-4----4-4--------1----|--0-0----0-0------0-0----|
-----4-4----4-4----0-0-1----|--0-0----0-0------0-0----|


  S S E  S S S E.  S S E     S S E  S S Q    S S    E  S S E  S S E  S S Q     
--------------------------|----------------------|----------------------------|
--------------------------|----------------------|----------------------------|
--------------------------|----------------------|----------------------------|
--------------------------|----------------------|----------------------------|
--0-0----0-0-0-----0-0----|--1-1----1-1------1-1-|-----4-4----4-4--------1----|
--0-0----0-0-0-----0-0----|--1-1----1-1------1-1-|-----4-4----4-4----0-0-1----|


          E  E  E  E  E  E  E  E     Q    E  E  E  E  Q     
-------|--------------------------|------------------------|
-------|--------------------------|------------------------|
-------|--------------------------|------------------------|
-------|--------------------3-----|------------------------|
-------|-----1--2--3--2-----1-----|--1----------------1----|
-------|--0--1--2--3--2--0-----0--|--1----0--0--0--0--1----|


  E  E  E  E  E  E  E  E     Q    E  E  E  E  Q       E  E  E  E  E  E  E  E   
--------------------------|------------------------|--------------------------|
--------------------------|------------------------|--------------------------|
--------------------------|------------------------|--------------------------|
--------------------3-----|------------------------|--------------------3-----|
-----1--2--3--2-----1-----|--1----------------1----|-----1--2--3--2-----1-----|
--0--1--2--3--2--0-----0--|--1----0--0--0--0--1----|--0--1--2--3--2--0-----0--|


  Q    E  E  E  E  Q       E  E  E  E  E  E  E  E     Q    E  E  E  E  Q     
------------------------|--------------------------|------------------------|
------------------------|--------------------------|------------------------|
------------------------|--------------------------|------------------------|
------------------------|--------------------3-----|------------------------|
--1----------------1----|-----1--2--3--2-----1-----|--1----------------1----|
--1----0--0--0--0--1----|--0--1--2--3--2--0-----0--|--1----0--0--0--0--1----|


  E  E  E  E  E  E  E  E     Q    E  E  E  E  Q       E  E  E  E  E  E  E  E   
--------------------------|------------------------|--------------------------|
--------------------------|------------------------|--------------------------|
--------------------------|------------------------|--------------------------|
--------------------3-----|------------------------|--------------------3-----|
-----1--2--3--2-----1-----|--1----------------1----|-----1--2--3--2-----1-----|
--0--1--2--3--2--0-----0--|--1----0--0--0--0--1----|--0--1--2--3--2--0-----0--|


  Q    E  E  E  E  Q       E  E  E  E  E  E  E  E   
------------------------|--------------------------|
------------------------|--------------------------|
------------------------|--------------------------|
------------------------|--------------------3-----|
--1----------------1----|-----1--2--3--2-----1-----|
--1----0--0--0--0--1----|--0--1--2--3--2--0-----0--|


  Q    Q    E  Q    Q    Q    E  E  E     Q    Q    E  Q    Q    Q    E  E  E   
---------------------------------------|---------------------------------------|
---------------------------------------|---------------------------------------|
---------------------------------------|---------------------------------------|
---------------------------------------|---------------------------------------|
-------8-------8---------8-------------|-------6-------6---------6-------------|
--0----8----0--8----0----8----0--0--0--|--0----6----0--6----0----6----0--0--0--|


  Q    Q    E  Q    Q    Q    E  E  E     Q    Q    E  Q    Q    Q    E  E  E   
---------------------------------------|---------------------------------------|
---------------------------------------|---------------------------------------|
---------------------------------------|---------------------------------------|
---------------------------------------|---------------------------------------|
-------8-------8---------8-------------|-------6-------6---------6-------------|
--0----8----0--8----0----8----0--0--0--|--0----6----0--6----0----6----0--0--0--|


  Q    Q    E  Q    Q    Q    E  E  E     Q    Q    E  Q    Q    Q    E  E  E   
---------------------------------------|---------------------------------------|
---------------------------------------|---------------------------------------|
---------------------------------------|---------------------------------------|
---------------------------------------|---------------------------------------|
-------8-------8---------8-------------|-------6-------6---------6-------------|
--0----8----0--8----0----8----0--0--0--|--0----6----0--6----0----6----0--0--0--|


  Q    Q    E  Q    Q    Q    E  E  E     Q    Q    E  Q    Q    Q    E  E  E   
---------------------------------------|---------------------------------------|
---------------------------------------|---------------------------------------|
---------------------------------------|---------------------------------------|
---------------------------------------|---------------------------------------|
-------8-------8---------8-------------|-------6-------6---------6-------------|
--0----8----0--8----0----8----0--0--0--|--0----6----0--6----0----6----0--0--0--|


  E  E  H        W                                     
----------------------------------|-------------------|
----------------------------------|-------------------|
----------------------------------|-------------------|
----------------------------------|-------------------|
--0-------------------------------|-------------------|
--0-------------------------------|-------------------|


  S S S S S S S S S S S S S S S S    E  E  H        Q     
----------------------------------|----------------------|
----------------------------------|----------------------|
----------------------------------|----------------------|
----------------------------------|----------------------|
----------------------------------|----------------------|
--0-0-0-1-0-0-0-0-0-1-0-0-0-0-0-0-|--0-------------------|


  S S S S S S S S S S S S S S S S    E  E  H        Q     
----------------------------------|----------------------|
----------------------------------|----------------------|
----------------------------------|----------------------|
----------------------------------|----------------------|
----------------------------------|----------------------|
--0-0-0-1-0-0-0-0-0-1-0-0-0-0-0-0-|--0-------------------|


  S S S S S S S S S S S S S S S S    S S S S S S S S S S S S S S S S  
----------------------------------|----------------------------------|
----------------------------------|----------------------------------|
----------------------------------|----------------------------------|
----------------------------------|----------------------------------|
----------------------------------|----------------------------------|
--0-0-0-1-0-0-0-0-0-1-0-0-0-0-0-0-|--0-0-0-1-0-0-0-0-0-1-0-0-0-0-0-0-|


  S S S S S S S S S S S S S S S S    S S S S S S S S S S S S S S S S  
----------------------------------|----------------------------------|
----------------------------------|----------------------------------|
----------------------------------|----------------------------------|
----------------------------------|----------------------------------|
----------------------------------|----------------------------------|
--0-0-0-1-0-0-0-0-0-1-0-0-0-0-0-0-|--0-0-0-1-0-0-0-0-0-1-0-0-0-0-0-0-|


  |-3-| |-3-| |-3-| |-3-| |-3-| |-3-|  |--3--|  |--3--|  
  S S S S S S S S S S S S S S S S S S  S  S  S  S  S  S  
--------------------------------------------------------|
--------------------------------------------------------|
--------------------------------------------------------|
--------------------------------------------------------|
--------------------------------------13-13-13-13-13-13-|
--0-0-0-0-0-0-0-0-0-0-0-0-0-0-0-0-0-0-13-13-13-13-13-13-|


  |-3-| |-3-| |-3-| |-3-| |-3-| |-3-|  |--3--|  |--3--|  
  S S S S S S S S S S S S S S S S S S  S  S  S  S  S  S  
--------------------------------------------------------|
--------------------------------------------------------|
--------------------------------------------------------|
--------------------------------------------------------|
--------------------------------------13-13-13-13-13-13-|
--0-0-0-0-0-0-0-0-0-0-0-0-0-0-0-0-0-0-13-13-13-13-13-13-|


  |-3-| |-3-| |-3-| |-3-| |-3-| |-3-|  |--3--|  |--3--|  
  S S S S S S S S S S S S S S S S S S  S  S  S  S  S  S  
--------------------------------------------------------|
--------------------------------------------------------|
--------------------------------------------------------|
--------------------------------------------------------|
--------------------------------------13-13-13-13-13-13-|
--0-0-0-0-0-0-0-0-0-0-0-0-0-0-0-0-0-0-13-13-13-13-13-13-|


  |-3-| |-3-| |-3-| |-3-| |-3-| |-3-|  |--3--|  |--3--|  
  S S S S S S S S S S S S S S S S S S  S  S  S  S  S  S  
--------------------------------------------------------|
--------------------------------------------------------|
--------------------------------------------------------|
--------------------------------------------------------|
--------------------------------------13-13-13-13-13-13-|
--0-0-0-0-0-0-0-0-0-0-0-0-0-0-0-0-0-0-13-13-13-13-13-13-|


  |-3-| |-3-| |-3-| |-3-| |-3-| |-3-|    |-3-| |-3-| |-3-| |-3-| |-3-| |-3-|  
  S S S S S S S S S S S S S S S S S S    S S S S S S S S S S S S S S S S S S  
--------------------------------------|--------------------------------------|
--------------------------------------|--------------------------------------|
--------------------------------------|--------------------------------------|
--------------------------------------|--------------------------------------|
--------6-5---------5-4-------4-3-----|--------6-5---------5-4-------4-3-----|
--6-5-0-----0-5-4-0-----0-4-3-----3-2-|--6-5-0-----0-5-4-0-----0-4-3-----3-2-|


  |-3-| |-3-| |-3-| |-3-| |-3-| |-3-|    |-3-| |-3-| |-3-| |-3-|  |-3-| |-3-|  
  S S S S S S S S S S S S S S S S S S    S S S S S S S S S S S S  S S S S S S  
--------------------------------------|---------------------------------------|
--------------------------------------|---------------------------------------|
--------------------------------------|---------------------------------------|
--------------------------------------|---------------------------------------|
--------6-5---------5-4-------4-3-----|--------6-5---------5-4---10-9---7-6---|
--6-5-0-----0-5-4-0-----0-4-3-----3-2-|--6-5-0-----0-5-4-0-----0------0-----0-|


  |--3--|                   ---   |--3--|  |--3--|  |--3--|  |--3--|   
  E  E  E  H        Q             E  E  E  E  E  E  E  E  E  E  E  E   
-------------------------|-----|--------------------------------------|
-------------------------|-----|--------------------------------------|
-------------------------|-----|--------------------------------------|
-------------------------|-----|--------------------------------------|
--0--1--0----------------|-----|--0--1--0-----------3-----------------|
--0--1--0----------------|-----|--0--1--0--0--0--0--3--0--0--0--0--0--|


  |--3--|  |--3--|  |--3--|  |--3--|     |--3--|  |--3--|  |--3--|  |--3--|   
  E  E  E  E  E  E  E  E  E  E  E  E     E  E  E  E  E  E  E  E  E  E  E  E   
--------------------------------------|--------------------------------------|
--------------------------------------|--------------------------------------|
--------------------------------------|--------------------------------------|
--------------------------------------|--------------------------------------|
--1-----------------5-----6-----0--1--|--0--1--0-----------3-----------------|
--1--0--0--0--0--0--5--0--6--0--0--1--|--0--1--0--0--0--0--3--0--0--0--0--0--|


  |--3--|  |--3--|  |--3--|  |--3--|     |--3--|  |--3--|  |--3--|  |--3--|   
  E  E  E  E  E  E  E  E  E  E  E  E     E  E  E  E  E  E  E  E  E  E  E  E   
--------------------------------------|--------------------------------------|
--------------------------------------|--------------------------------------|
--------------------------------------|--------------------------------------|
--------------------------------------|--------------------------------------|
--1-----------------5-----6-----0--1--|--0--1--0-----------3-----------------|
--1--0--0--0--0--0--5--0--6--0--0--1--|--0--1--0--0--0--0--3--0--0--0--0--0--|


  |--3--|  |--3--|  |--3--|  |--3--|     |--3--|  |--3--|  |--3--|  |--3--|   
  E  E  E  E  E  E  E  E  E  E  E  E     E  E  E  E  E  E  E  E  E  E  E  E   
--------------------------------------|--------------------------------------|
--------------------------------------|--------------------------------------|
--------------------------------------|--------------------------------------|
--------------------------------------|--------------------------------------|
--1-----------------5-----6-----0--1--|--0--1--0-----------3-----------------|
--1--0--0--0--0--0--5--0--6--0--0--1--|--0--1--0--0--0--0--3--0--0--0--0--0--|


  |--3--|  |--3--|  |--3--|  |--3--|     |--3--|  |--3--|  |--3--|  |--3--|   
  E  E  E  E  E  E  E  E  E  E  E  E     E  E  E  E  E  E  E  E  E  E  E  E   
--------------------------------------|--------------------------------------|
--------------------------------------|--------------------------------------|
--------------------------------------|--------------------------------------|
--------------------------------------|--------------------------------------|
--1-----------------5-----6-----0--1--|--0--1--0-----------3-----------------|
--1--0--0--0--0--0--5--0--6--0--0--1--|--0--1--0--0--0--0--3--0--0--0--0--0--|


  |--3--|  |--3--|  |--3--|  |--3--|     |--3--|  |--3--|  |--3--|  |--3--|   
  E  E  E  E  E  E  E  E  E  E  E  E     E  E  E  E  E  E  E  E  E  E  E  E   
--------------------------------------|--------------------------------------|
--------------------------------------|--------------------------------------|
--------------------------------------|--------------------------------------|
--------------------------------------|--------------------------------------|
--1-----------------5-----6-----0--1--|--0--1--0-----------3-----------------|
--1--0--0--0--0--0--5--0--6--0--0--1--|--0--1--0--0--0--0--3--0--0--0--0--0--|


  |--3--|  |--3--|  |--3--|  |--3--|     |--3--|  |--3--|  |--3--|  |--3--|   
  E  E  E  E  E  E  E  E  E  E  E  E     E  E  E  E  E  E  E  E  E  E  E  E   
--------------------------------------|--------------------------------------|
--------------------------------------|--------------------------------------|
--------------------------------------|--------------------------------------|
--------------------------------------|--------------------------------------|
--1-----------------5-----6-----0--1--|--0--1--0-----------3-----------------|
--1--0--0--0--0--0--5--0--6--0--0--1--|--0--1--0--0--0--0--3--0--0--0--0--0--|


  |--3--|  |--3--|  |--3--|  |--3--|     |--3--|  |--3--|  |--3--|  |--3--|   
  E  E  E  E  E  E  E  E  E  E  E  E     E  E  E  E  E  E  E  E  E  E  E  E   
--------------------------------------|--------------------------------------|
--------------------------------------|--------------------------------------|
--------------------------------------|--------------------------------------|
--------------------------------------|--------------------------------------|
--1-----------------5-----6-----0--1--|--0--1--0-----------3-----------------|
--1--0--0--0--0--0--5--0--6--0--0--1--|--0--1--0--0--0--0--3--0--0--0--0--0--|


  |--3--|  |--3--|  |--3--|  |--3--|     |--3--|  |--3--|  |--3--|   
  E  E  E  E  E  E  E  E  E  E  E  E     E  E  E  E  E  E  E  E  E   
--------------------------------------|-----------------------------|
--------------------------------------|-----------------------------|
--------------------------------------|-----------------------------|
--------------------------------------|-----------------------------|
--1-----------------5-----6-----0--1--|-----------6--5--------------|
--1--0--0--0--0--0--5--0--6--0--0--1--|--6--5--0--------0--5--4--0--|


  |--3--|  |--3--|  |--3--|     |--3--|  |--3--|  |--3--|   
  E  E  E  E  E  E  E  E  E     E  E  E  E  E  E  E  E  E   
-----------------------------|-----------------------------|
-----------------------------|-----------------------------|
-----------------------------|-----------------------------|
-----------------------------|-----------------------------|
--5--4-----------4--3--------|-----------6--5--------------|
--------0--4--3--------3--2--|--6--5--0--------0--5--4--0--|


  |--3--|  |--3--|  |--3--|     |--3--|  |--3--|  |--3--|   
  E  E  E  E  E  E  E  E  E     E  E  E  E  E  E  E  E  E   
-----------------------------|-----------------------------|
-----------------------------|-----------------------------|
-----------------------------|-----------------------------|
-----------------------------|-----------8--7--------------|
--5--4-----------4--3--------|--6--5-----6--5-----5--4-----|
--------0--4--3--------3--2--|--6--5--0--------0--5--4--0--|


  |--3--|  |--3--|  |--3--|     |--3--|  |--3--|  |--3--|   
  E  E  E  E  E  E  E  E  E     E  E  E  E  E  E  E  E  E   
-----------------------------|-----------------------------|
-----------------------------|-----------------------------|
-----------------------------|-----------------------------|
--7--6-----------6--5--------|-----------8--7--------------|
--5--4-----4--3--4--3--3--2--|--6--5--0--6--5--0--5--4--0--|
--------0--4--3--------3--2--|--6--5--0--------0--5--4--0--|


  |--3--|   |---3--|  |--3--|     |--3--|              
  E  E  E   E   E  E  E  E  E     E  E  E  Q    Q      
-------------------------------|---------------------||
-------------------------------|---------------------||
-------------------------------|---------------------||
--7--6-----12--11-----9--8-----|---------------------||
--5--4--0--10---9-----7--6-----|--0--1--0------------||
--------0----------0--------0--|--0--1--0------------||




Duration Legend
---------------
W - whole
H - half
Q - quarter
E - 8th
S - 16th
T - 32nd
X - 64th
. - note dotted
|-n-|  - n-tuplets


Tablature Legend
----------------
L - tied note
x - dead note
g - grace note
(n) - ghost note
> - accentuded note
NH - natural harmonic
AH - artificial harmonic
TH - tapped harmonic
SH - semi harmonic
PH - pitch harmonic
h - hammer on
p - pull off
b - bend
br - bendRelease
pb - preBend
pbr - preBendRelease
brb - bendReleaseBend
\n/ - tremolo bar dip
\n - tremolo bar dive
-/n - tremolo bar Release up
/n\ - tremolo bar inverted dip
/n - tremolo bar return
-\n - tremolo bar Release down
S - shift slide
s - legato slide
/ -  slide into from below or out of upwards
\ -  slide into from above or out of downwards
~ - vibrato
W - wide vibrato
tr - trill
TP - tremolo picking
T - tapping
S - slap
P - pop
< - fade in
^ - brush up
v - brush down
Добавлено: 27.07.2012
Другие материалы по этой песне:
  • Аккорды и текст

Страница создана 03.06.2012
http://primanota.ru/lamb-of-god/the-subtle-arts-of-murder-and-persusian-chords.htm
Привет, Гость.
Предлагаем пройти революционный курс по гитаре.
Подарок от PrimaNota.Ru, забирай!