PrimaNota.ru - самый крупный в мире бесплатный архив песенных текстов, аккордов, табулатур и нот


Lamb Of God - Still Echoes - таба, видео

Регистрация Запомнить меня
Войти через:  Facebook Google Twitter Vk Yandex Mail.ru

Lamb Of God - Still Echoes - таба, видео

Печатать
Просмотров: 173
Уроки эстрадного вокала в Санкт-Петербурге
Авторы: Lamb of God

|--------------------------------------------------------------------------------------------------------|
|                                       LAMB OF GOD - STILL ECHOES                                       |
|                                      Album: Sturm and Drang (2015)                                     |
|--------------------------------------------------------------------------------------------------------|

                   If you have questions or corrections feel free to send me a message:
                                http://profile.ultimate-guitar.com/godspeedy/
                                    https://www.facebook.com/Godspeedy14

                      *************************************************************
                      * NOTE: If you need a playthrough, check out my cover here: *
                      *       https://www.youtube.com/watch?v=Pcc1EJi6bKU         *
                      *************************************************************
                     
                Also, check out my Youtube channel: http://www.youtube.com/user/Godspeedy14

                                         Tuning: 6 string DADGBE 
                                                    
*********************************************GUITAR NOTATIONS*********************************************
*                                                                                                        *
*                                      | *   palm mute           |                                       *
*                                      | h   hammer-on           |                                       *
*                                      | p   pull-off            |                                       *
*                                      | x   Mute note           |                                       *
*                                      | b   bend                |                                       *
*                                      | r   release             |                                       *
*                                      | br  bend release        |                                       *
*                                                                                                        *
**********************************************************************************************************

|--------------------------------------------------------------------------------------------------------|
|                                          INTRO (00:00-00:23)                                           |
|--------------------------------------------------------------------------------------------------------|

I. Guitar 1 (w/ dist)

E|------------------------------------------------|------------------------------------------------|
B|------------------------------------------------|------------------------------------------------|
G|------------------------------------------------|------------------------------------------------|
D|------------------------------------------------|------------------------------------------------|
A|------------------------------------------------|------------------------------------------------|
D|-3--3--3--0--0--0--8--8--8--0--0--0--7--7--7--0-|-0--0--4--4--5--5--4--4--1--1--4--4--1--1--3--3-|

E|------------------------------------------------|------------------------------------------------|
B|------------------------------------------------|------------------------------------------------|
G|------------------------------------------------|------------------------------------------------|
D|------------------------------------------------|------------------------------------------------|
A|------------------------------------------------|------------------------------------------------|
D|-3--3--3--0--0--0--8--8--8--0--0--0--7--7--7--0-|-0--0--4--4--5--5--4--4--1--1--4--4-------------|

II. Guitars 1 and 2 (w/ dist)

E|------------------------------------------------|------------------------------------------------|
B|------------------------------------------------|------------------------------------------------|
G|------------------------------------------------|------------------------------------------------| x4
D|------------------------------------------------|------------------------------------------------|
A|------------------------------------------------|------------------------------------------------|
D|-3--3--3--0--0--0--8--8--8--0--0--0--7--7--7--0-|-0--0--4--4--5--5--4--4--1--1--4--4--1--1--3--3-|

|--------------------------------------------------------------------------------------------------------|
|                                          VERSE (00:23-00:38)                                           |
|--------------------------------------------------------------------------------------------------------|

Guitars 1 and 2 (w/ dist)

E|------------------------------------------------|------------------------------------------------|
B|------------------------------------------------|------------------------------------------------|
G|------------------------------------------------|------------------------------------------------| x4
D|------------------------------------------------|------------------------------------------------|
A|-3-----------------8-----------------7----------|-------4-----5-----4-----1-----4-----1-----3----|
D|-3--0--0--0--0--0--8--0--0--0--0--0--7--0--0--0-|-0--0--4--0--5--0--4--0--1--0--4--0--1--0--3--0-|
      *  *     *  *     *  *     *  *     *  *      *  *     *     *     *     *     *     *     *
                                     
|--------------------------------------------------------------------------------------------------------|
|                                        PRE-CHORUS (00:38-00:54)                                        |
|--------------------------------------------------------------------------------------------------------|

Guitars 1 and 2 (w/ dist)

E|-------------------------------------------------|-------------------------------------------------|
B|-------------------------------------------------|-------------------------------------------------|
G|-------------------------------------------------|-------------------------------------------------|
D|-------12p0-h12p0--------12p0-h12p0--------------|-------11p0-h11p0--------11p0-h11p0--------------|
A|-------------------------------------------12----|-------------------------------------------12-13-|
D|-0--0--------------0--0--------------12-13----10-|-0--0--------------0--0--------------13-10-------|\
   *  *              *  *              *  *          *  *              *  *              *  *          x2
E|-------------------------------------------------|-------------------------------------------------|/
B|-------------------------------------------------|-------------------------------------------------|
G|-------------------------------------------------|-------------------------------------------------|
D|-------10p0-h10p0--------10p0-h10p0--------------|-------8-p0-h8-p0-----------------12-11----------|
A|----------------------------------------13-10-9--|-------------------------12-------------13-12-11-|
D|-0--0--------------0--0--------------12----------|-0--0--------------0--12----13-12----------------|
   *  *              *  *              *     *  *    *  *              *  *     *  *

|--------------------------------------------------------------------------------------------------------|
|                                          CHORUS (00:54-01:18)                                          |
|--------------------------------------------------------------------------------------------------------|

I. Guitars 1 and 2 (w/ dist)

E|------------------------------------------------|------------------------------------------------|
B|------------------------------------------------|------------------------------------------------|
G|------------------------------------------------|------------------------------------------------|
D|-12-12-12-12-0--0--12-12-12-12-0--0--12-12-0--0-|-14-14-14-14-0--0--14-14-14-14-0--0--14-14-0--0-|
A|-12-12-12-12-0--0--12-12-12-12-0--0--12-12-0--0-|-14-14-14-14-0--0--14-14-14-14-0--0--14-14-0--0-|
D|-12-12-12-12-0--0--12-12-12-12-0--0--12-12-0--0-|-14-14-14-14-0--0--14-14-14-14-0--0--14-14-0--0-|\
                                                                                                     x2
E|------------------------------------------------|------------------------------------------------|/
B|------------------------------------------------|------------------------------------------------|
G|------------------------------------------------|------------------------------------------------|
D|-8--8--8--8--0--0--8--8--8--8--0--0--8--8--0--0-|-5--5--5--5--5--5--7--7--7--7--7--7--7--7--7--7-|
A|-8--8--8--8--0--0--8--8--8--8--0--0--8--8--0--0-|-5--5--5--5--5--5--7--7--7--7--7--7--7--7--7--7-|
D|-8--8--8--8--0--0--8--8--8--8--0--0--8--8--0--0-|-5--5--5--5--5--5--7--7--7--7--7--7--7--7--7--7-|

II. Guitar 1 (w/ dist)

E|-----------------------------------------------------|
B|-----------------------------------------------------|
G|-----------------------------------------------------|
D|-----------------------------------------------------|
A|-----------------------------------------------------|
D|-12h13p12-0--0--0--0--0-0-0--15-0--0--14-0--0--10-13-|
   +        *  *  *  *  * * *     *  *     *  *  
E|-----------------------------------------------------|
B|-----------------------------------------------------|
G|-----------------------------------------------------|
D|-----------------------------------------------------|
A|-----------------------------------------------------|
D|-12h13p12-0--0--0--0--0-0-0--15-0--0--14-0--0--13-0--|
   +        *  *  *  *  * * *     *  *     *  *     *
E|-----------------------------------------------------|
B|-----------------------------------------------------|
G|-----------------------------------------------------|
D|-----------------------------------------------------|
A|-----------------------------------------------------|
D|-12h13p12-0--0--0--0--0-0-0--15-0--0--14-0--0--10-13-|
            *  *  *  *  * * *     *  *     *  *  *  * 
E|-----------------------------------------------------|
B|-----------------------------------------------------|
G|-----------------------------------------------------|
D|-----------------------------------------------------|
A|----------------------------------12h13p12-----------|
D|-12h13p12-0--0--0--0--0--0--12-13----------15-13-16--|
   +        *  *  *  *  *  *  *  *  +

    Guitar 2 (w/ dist)

E|-----------------------------------------------------|
B|-----------------------------------------------------|
G|-----------------------------------------------------|
D|-----------------------------------------------------|
A|-12h13p12--------------------15-------14-------10-13-|
D|----------0--0--0--0--0-0-0-----0--0-----0--0--------|
   +        *  *  *  *  * * *     *  *     *  *  
E|-----------------------------------------------------|
B|-----------------------------------------------------|
G|-----------------------------------------------------|
D|-----------------------------------------------------|
A|-12h13p12--------------------15-------14-------13----|
D|----------0--0--0--0--0-0-0-----0--0-----0--0-----0--|
   +        *  *  *  *  * * *     *  *     *  *     *
E|-----------------------------------------------------|
B|-----------------------------------------------------|
G|-----------------------------------------------------|
D|-----------------------------------------------------|
A|-12h13p12--------------------15-------14-------10-13-|
D|----------0--0--0--0--0-0-0-----0--0-----0--0--------|
            *  *  *  *  * * *     *  *     *  * 
E|-----------------------------------------------------|
B|-----------------------------------------------------|
G|-----------------------------------------------------|
D|-----------------------------------------------------|
A|-12h13p12-------------------------12h13p12-----------|
D|----------0--0--0--0--0--0--12-13----------15-13-16--|
   +        *  *  *  *  *  *  *  *  +

|--------------------------------------------------------------------------------------------------------|
|                                         VERSE 2 (01:18-01:45)                                          |
|--------------------------------------------------------------------------------------------------------|

Guitars 1 and 2 (w/ dist)

E|------------------------------------------------|------------------------------------------------|
B|------------------------------------------------|------------------------------------------------|
G|------------------------------------------------|------------------------------------------------|
D|------------------------------------------------|------------------------------------------------|
A|------------------------------------------------|------------------------------------------------|
D|-3--3--3--0--0--0--8--8--8--0--0--0--7--7--7--0-|-0--0--4--4--5--5--4--4--1--1--4--4--1--1--3--3-|

E|------------------------------------------------|------------------------------------------------|
B|------------------------------------------------|------------------------------------------------|
G|------------------------------------------------|------------------------------------------------| x4
D|------------------------------------------------|------------------------------------------------|
A|-3-----------------8-----------------7----------|-------4-----5-----4-----1-----4-----1-----3----|
D|-3--0--0--0--0--0--8--0--0--0--0--0--7--0--0--0-|-0--0--4--0--5--0--4--0--1--0--4--0--1--0--3--0-|
      *  *     *  *     *  *     *  *     *  *      *  *     *     *     *     *     *     *     *
E|--------|-------|-------|-------|
B|--------|-------|-------|-------|
G|--------|-------|-------|-------|
D|--------|-------|-------|-------|
A|--------|-------|-------|-------|
D|-0------|-------|-------|-------|

|--------------------------------------------------------------------------------------------------------|
|                                       PRE-CHORUS 2 (01:45-02:00)                                       |
|--------------------------------------------------------------------------------------------------------|
                                           same as PRE-CHORUS
|--------------------------------------------------------------------------------------------------------|
|                                         CHORUS 2 (02:00-02:24)                                         |
|--------------------------------------------------------------------------------------------------------|
                                              same as CHORUS
|--------------------------------------------------------------------------------------------------------|
|                                          BRIDGE (02:24-03:31)                                          |
|--------------------------------------------------------------------------------------------------------|

I. Guitar 1 (w/ dist)

E|---------|---------|---------|--------------------------------------|
B|---------|---------|---------|--------------------------------------|
G|---------|---------|---------|--------------------------------------|
D|-0-------|---------|-0-------|---------0--3--2---0--2--1---0--0--1--|
A|-0-------|---------|-0-------|---------0--3--2---0--2--1---0--0--1--|
D|-0-------|---------|-0-------|---------0--3--2---0--2--1---0--0--1--|
   *                   *                 *  *      *  *      *  *

   Guitar 2 (w/ dist)

E|-------------------------------------------------------|
B|-------------------------------------------------------|
G|-------------------------------------------------------|
D|-------------------------------------------------------|
A|-------------------------------------------------------|
D|-0-0-0--0--0-0-0--0--0-0-0--0--0-0-0--0--0-0-0--0--0-0-|
   * * *  *  * * *  *  * * *  *  * * *  *  * * *  *  * *
E|---------------------------------------------------|
B|---------------------------------------------------|
G|---------------------------------------------------|
D|---------------------------------------------------|
A|---------------------------------0-h1-p0-----------|
D|-0--0--0-0-0--0--0-0-0--0--0--1-----------3--1--4--|
   *  *  * * *  *  * * *  *  *  *           
E|-------------------------------------------------------|
B|-------------------------------------------------------|
G|-------------------------------------------------------|
D|-------------------------------------------------------|
A|-------------------------------------------------------|
D|-0-0-0--0--0-0-0--0--0-0-0--0--0-0-0--0--0-0-0--0--0-0-|
   * * *  *  * * *  *  * * *  *  * * *  *  * * *  *  * *
E|----------------------------------------------|
B|----------------------------------------------|
G|----------------------------------------------|
D|-----------------0--3--2---0--2--1---0--0--1--|
A|-----------------0--3--2---0--2--1---0--0--1--|
D|-0--0--0-0-0--0--0--3--2---0--2--1---0--0--1--|
   *  *  * * *  *  *  *      *  *      *  *

II. Guitars 1 and 2 (w/ dist)
                                                                                            ---------|
E|----------------------------------------------|-------------------------------------------------|  | 
B|----------------------------------------------|-------------------------------------------------|  |
G|----------------------------------------------|-------------------------------------------------|  |
D|----------------------------------------------|-------------------------------------------------|  |
A|--------------------------------------------3-|-------------------------------0-h1-p0-----------|  |
D|-0--0--0--0--0--0--0--0--3br-0--1--3--4--5----|-0--0--0--0--0--0--0--0--0--1-----------3--1--4--|  |
   *  *  *  *  *  *  *  *  +                  +   *  *  *  *  *  *  *  *  *  *                       | x4
E|----------------------------------------------|---------------------------------------------|      |
B|----------------------------------------------|---------------------------------------------|      |
G|----------------------------------------------|---------------------------------------------|      |
D|----------------------------------------------|----------------0--3--2---0--2--1---0--0--1--|      |
A|--------------------------------------------3-|----------------0--3--2---0--2--1---0--0--1--|      |
D|-0--0--0--0--0--0--0--0--3br-0--1--3--4--5----|-0--0--0--0--0--0--3--2---0--2--1---0--0--1--|      |
   *  *  *  *  *  *  *  *  +                  +   *  *  *  *  *  *  *      *  *      *  *   ---------|

III. Guitar 1 (w/ dist)

E|-------------------------------------------------|
B|-------------------------------------------------|
G|-------------------------------------------------| x3
D|-------------------------------------------------|
A|-------------------------------------------------|
D|-12-12-12-12-12-12-12-12-12-12-12-12-12-12-12-12-|
   *  *  *  *  *  *  *  *  *  *  *  *  *  *  *  *
E|-------------------------------------------------|
B|-------------------------------------------------|
G|-------------------------------------------------| x8
D|-------------------------------------------------|
A|-------------------------------------------------|
D|-12-12-12-12-12-12-12-12-12-12-12-12-12-12-12-12-|

E|-------------------------------|
B|-------------------------------|
G|-------------------------------|
D|-------------------------------|
A|-------------------------------|
D|-12-12-12-12-12-12-12----------|

Guitar 2 (w/ dist)

4 bars empty, then:

E|-----------------------|-----------------------|---------------------|-----------------------|
B|-----------------------|-----------------------|---------------------|-----------------------|
G|-----------------------|-----------------------|---------------------|-----------------------|
D|-----------------------|-----------------------|---------------------|-----------------------|
A|-----------------------|-----------------------|---------------------|-----------------------|
D|-12--0---0---0--12-----|-14--0---0---0--14-----|-8--0---0---0--8-----|-5--5---5---5--7-------|
   *   *   *   *           *   *   *   *           *  *   *   *          *  *   *   *
E|-----------------------|-----------------------|---------------------|-----------------------|
B|-----------------------|-----------------------|---------------------|-----------------------|
G|-----------------------|-----------------------|---------------------|-----------------------|
D|-----------------------|-----------------------|---------------------|-5--5--5--5--5--5--7---|
A|-----------------------|-----------------------|---------------------|-5--5--5--5--5--5--7---|
D|-12--0---0---0--12-----|-14--0---0---0--14-----|-8--0---0---0--8-----|-5--5--5--5--5--5--7---|
   *   *   *   *           *   *   *   *           *  *   *   * 

Guitar 3 (w/ dist)

8 bars empty, then:

E|-----------------------|-----------------------|---------------------|-----------------------|
B|-----------------------|-----------------------|---------------------|-----------------------|
G|-----------------------|-----------------------|---------------------|-----------------------|
D|-----------------------|-----------------------|---------------------|-5--5--5--5--5--5--7---|
A|-----------------------|-----------------------|---------------------|-5--5--5--5--5--5--7---|
D|-12--0---0---0--12-----|-14--0---0---0--14-----|-8--0---0---0--8-----|-5--5--5--5--5--5--7---|
   *   *   *   *           *   *   *   *           *  *   *   * 

|--------------------------------------------------------------------------------------------------------|
|                                         CHORUS 3 (03:31-04:02)                                         |
|--------------------------------------------------------------------------------------------------------|

Guitars 1 and 2 (w/ dist)

E|------------------------------------------------|------------------------------------------------|
B|------------------------------------------------|------------------------------------------------|
G|------------------------------------------------|------------------------------------------------|
D|-12-12-12-12-0--0--12-12-12-12-0--0--12-12-0--0-|-14-14-14-14-0--0--14-14-14-14-0--0--14-14-0--0-|
A|-12-12-12-12-0--0--12-12-12-12-0--0--12-12-0--0-|-14-14-14-14-0--0--14-14-14-14-0--0--14-14-0--0-|
D|-12-12-12-12-0--0--12-12-12-12-0--0--12-12-0--0-|-14-14-14-14-0--0--14-14-14-14-0--0--14-14-0--0-|\
                                                                                                     x4
E|------------------------------------------------|------------------------------------------------|/
B|------------------------------------------------|------------------------------------------------|
G|------------------------------------------------|------------------------------------------------|
D|-8--8--8--8--0--0--8--8--8--8--0--0--8--8--0--0-|-5--5--5--5--5--5--7--7--7--7--7--7--7--7--7--7-|
A|-8--8--8--8--0--0--8--8--8--8--0--0--8--8--0--0-|-5--5--5--5--5--5--7--7--7--7--7--7--7--7--7--7-|
D|-8--8--8--8--0--0--8--8--8--8--0--0--8--8--0--0-|-5--5--5--5--5--5--7--7--7--7--7--7--7--7--7--7-|

Guitar 3 (w/ dist and delay) - Lead guitar

8 bars empty, then:
                                             T        T        T         T        T        T     
E|-10-----|-12-----|-13-----|-15-----|-16b---20-pb16--20-pb16--20-pb16-|-20-pb16--20-pb16--20-pb16--r--|
B|-13b----|-15b----|-16b----|-18b----|---------------------------------|-------------------------------|
G|--------|--------|--------|--------|---------------------------------|-------------------------------|
D|--------|--------|--------|--------|---------------------------------|-------------------------------|
A|--------|--------|--------|--------|---------------------------------|-------------------------------|
D|--------|--------|--------|--------|---------------------------------|-------------------------------|

E|-16b-----------------------------------------|-------------------------------------------------|-----|
B|---------------------------------------------|-13----------------------13----------------------|-----|
G|-----17-14-17b-17-14-17-14-13-14-13-12-------|----14-12-14-12-------------14-12-14-12----------|-----|
D|---------------------------------------15-12-|----------------15----------------------15-------|-12~~|
A|---------------------------------------------|-------------------15-12-------------------12-15-|-----|
D|---------------------------------------------|-------------------------------------------------|-----|
             +         +                                                                   *  *

|--------------------------------------------------------------------------------------------------------|
|                                          OUTRO (04:02-04:25)                                           |
|--------------------------------------------------------------------------------------------------------|

Guitar 1 (w/ dist)

E|-----------------------------------------------------|
B|-----------------------------------------------------|
G|-----------------------------------------------------|
D|-----------------------------------------------------|
A|-----------------------------------------------------|
D|-12h13p12-0--0--0--0--0-0-0--15-0--0--14-0--0--10-13-|
   +        *  *  *  *  * * *     *  *     *  *  
E|-----------------------------------------------------|
B|-----------------------------------------------------|
G|-----------------------------------------------------|
D|-----------------------------------------------------|
A|-----------------------------------------------------|
D|-12h13p12-0--0--0--0--0-0-0--15-0--0--14-0--0--13-0--|
   +        *  *  *  *  * * *     *  *     *  *     *
E|-----------------------------------------------------|
B|-----------------------------------------------------|
G|-----------------------------------------------------|
D|-----------------------------------------------------|
A|-----------------------------------------------------|
D|-12h13p12-0--0--0--0--0-0-0--15-0--0--14-0--0--10-13-|
            *  *  *  *  * * *     *  *     *  *  *  * 
E|-----------------------------------------------------|
B|-----------------------------------------------------|
G|-----------------------------------------------------|
D|-----------------------------------------------------|
A|----------------------------------12h13p12-----------|
D|-12h13p12-0--0--0--0--0--0--12-13----------15-13-16--|
   +        *  *  *  *  *  *  *  *  +
E|-----------------------------------------------------|
B|-----------------------------------------------------|
G|-----------------------------------------------------|
D|-----------------------------------------------------|
A|-----------------------------------------------------|
D|-12h13p12-0--0--0--0--0-0-0--15-0--0--14-0--0--10-13-|
   +        *  *  *  *  * * *     *  *     *  *  
E|-----------------------------------------------------|
B|-----------------------------------------------------|
G|-----------------------------------------------------|
D|-----------------------------------------------------|
A|-----------------------------------------------------|
D|-12h13p12-0--0--0--0--0-0-0--15-0--0--14-0--0--13-0--|
   +        *  *  *  *  * * *     *  *     *  *     *
E|-----------------------------------------------------|
B|-----------------------------------------------------|
G|-----------------------------------------------------|
D|-----------------------------------------------------|
A|-----------------------------------------------------|
D|-12h13p12-0--0--0--0--0-0-0--15-0--0--14-0--0--10-13-|
            *  *  *  *  * * *     *  *     *  *  *  * 
E|------------------------------------------------|----|
B|------------------------------------------------|----|
G|------------------------------------------------|----|
D|-------------------0--3--2---0--2--1---0--0--1--|-0--|
A|-------------------0--3--2---0--2--1---0--0--1--|-0--|
D|-12h13p12-0--0--0--0--3--2---0--2--1---0--0--1--|-0--|
   +        *  *  *  *  *      *  *      *  *       *

Guitar 2 (w/ dist)

E|-----------------------------------------------------|
B|-----------------------------------------------------|
G|-----------------------------------------------------|
D|-----------------------------------------------------|
A|-12h13p12--------------------15-------14-------10-13-|
D|----------0--0--0--0--0-0-0-----0--0-----0--0--------|
   +        *  *  *  *  * * *     *  *     *  *  
E|-----------------------------------------------------|
B|-----------------------------------------------------|
G|-----------------------------------------------------|
D|-----------------------------------------------------|
A|-12h13p12--------------------15-------14-------13----|
D|----------0--0--0--0--0-0-0-----0--0-----0--0-----0--|
   +        *  *  *  *  * * *     *  *     *  *     *
E|-----------------------------------------------------|
B|-----------------------------------------------------|
G|-----------------------------------------------------|
D|-----------------------------------------------------|
A|-12h13p12--------------------15-------14-------10-13-|
D|----------0--0--0--0--0-0-0-----0--0-----0--0--------|
            *  *  *  *  * * *     *  *     *  * 
E|-----------------------------------------------------|
B|-----------------------------------------------------|
G|-----------------------------------------------------|
D|-----------------------------------------------------|
A|-12h13p12-------------------------12h13p12-----------|
D|----------0--0--0--0--0--0--12-13----------15-13-16--|
   +        *  *  *  *  *  *  *  *  +
E|-----------------------------------------------------|
B|-----------------------------------------------------|
G|-----------------------------------------------------|
D|-----------------------------------------------------|
A|-12h13p12--------------------15-------14-------10-13-|
D|----------0--0--0--0--0-0-0-----0--0-----0--0--------|
   +        *  *  *  *  * * *     *  *     *  *  
E|-----------------------------------------------------|
B|-----------------------------------------------------|
G|-----------------------------------------------------|
D|-----------------------------------------------------|
A|-12h13p12--------------------15-------14-------13----|
D|----------0--0--0--0--0-0-0-----0--0-----0--0-----0--|
   +        *  *  *  *  * * *     *  *     *  *     *
E|-----------------------------------------------------|
B|-----------------------------------------------------|
G|-----------------------------------------------------|
D|-----------------------------------------------------|
A|-12h13p12--------------------15-------14-------10-13-|
D|----------0--0--0--0--0-0-0-----0--0-----0--0--------|
            *  *  *  *  * * *     *  *     *  * 
E|------------------------------------------------|----|
B|------------------------------------------------|----|
G|------------------------------------------------|----|
D|-------------------0--3--2---0--2--1---0--0--1--|-0--|
A|-12h13p12----------0--3--2---0--2--1---0--0--1--|-0--|
D|----------0--0--0--0--3--2---0--2--1---0--0--1--|-0--|
   +        *  *  *  *  *      *  *      *  *       *

Добавлено: 02.09.2015
Вам также может быть интересно:
Другие материалы по этой песне:

Страница создана 20.08.2015
http://primanota.ru/lamb-of-god/still-echoes-chords.htm
Привет, Гость.
Предлагаем пройти революционный курс по гитаре.
Подарок от PrimaNota.Ru, забирай!