PrimaNota.ru - самый крупный в мире бесплатный архив песенных текстов, аккордов, табулатур и нот


Lamb Of God - For Your Malice - текст песни, таба, бас-таба, видео

Регистрация Запомнить меня
Войти через:  Facebook Google Twitter Vk Yandex Mail.ru

Lamb Of God - For Your Malice - текст песни, таба, бас-таба, видео

Печатать
Просмотров: 213
lamb of god (this band kicks so much ass)
for your malice

Gtr I (D A D G B E) - 'Untitled' 
Gtr II (D A D G B E) - 'Untitled' 

Intro 
Q=83 
Dm/A 
4/4 
Gtr I 
PM----------------------------| 
S S S S S S S S T T S S T T S S T T T T 
||----------------------------------------------| 
||o-10-10-10-10---------------------------------| 
||--10-10-10-10---------------------------------| 
||--12-12-12-12---------------------------------| 
||o-12-12-12-12---------------------------------| 
||--------------0-0-0-0-0-0-0-0-0-0-0-0-0-0-0-0-| 


E7/A 
PM----| PM----| 
S S S S S S S S S S S S S S S S 
|-------------------------------------------| 
|-10-10-10-10----------9--9--9--9-----------| 
|-10-10-10-10----------9--9--9--9-----------| 
|-12-12-12-12---------12-12-12-12-----------| 
|-12-12-12-12---------12-12-12-12-----------| 
|-------------0-0-0-0-------------0-0-0-0---| 


Bb 
PM----------------------------| 
S S S S S S S S T T S S T T S S T T T T 
|---------------------------------------------| 
|-11-11-11-11---------------------------------| 
|-10-10-10-10---------------------------------| 
|-12-12-12-12---------------------------------| 
|-13-13-13-13---------------------------------| 
|-------------0-0-0-0-0-0-0-0-0-0-0-0-0-0-0-0-| 


PM----| PM----| 
S S S S S S S S S S S S S S S S 
|--------------------------------------------|| 
|-11-11-11-11---------11-11-11-11-----------o|| 
|-10-10-10-10---------10-10-10-10------------|| 
|-12-12-12-12---------12-12-12-12------------|| 
|-13-13-13-13---------13-13-13-13-----------o|| 
|-------------0-0-0-0-------------0-0-0-0----|| 


Verse 
Dm/A 
Gtrs I, II 
PM----------------------------| 
S S S S S S S S T T S S T T S S T T T T 
||----------------------------------------------| 
||o-10-10-10-10---------------------------------| 
||--10-10-10-10---------------------------------| 
||--12-12-12-12---------------------------------| 
||o-12-12-12-12---------------------------------| 
||--------------0-0-0-0-0-0-0-0-0-0-0-0-0-0-0-0-| 


E7/A 
PM----| PM----| 
S S S S S S S S S S S S S S S S 
|------------------------------------------| 
|-10-10-10-10----------9--9--9--9----------| 
|-10-10-10-10----------9--9--9--9----------| 
|-12-12-12-12---------12-12-12-12----------| 
|-12-12-12-12---------12-12-12-12----------| 
|-------------0-0-0-0-------------0-0-0-0--| 


Bb 
PM----------------------------| 
S S S S S S S S T T S S T T S S T T T T 
|---------------------------------------------| 
|-11-11-11-11---------------------------------| 
|-10-10-10-10---------------------------------| 
|-12-12-12-12---------------------------------| 
|-13-13-13-13---------------------------------| 
|-------------0-0-0-0-0-0-0-0-0-0-0-0-0-0-0-0-| 


PM----| PM----| 
S S S S S S S S S S S S S S S S 
|--------------------------------------------|| 
|-11-11-11-11---------11-11-11-11-----------o|| 
|-10-10-10-10---------10-10-10-10------------|| 
|-12-12-12-12---------12-12-12-12------------|| 
|-13-13-13-13---------13-13-13-13-----------o|| 
|-------------0-0-0-0-------------0-0-0-0----|| 


N.C. 
7/8 
T T T T T T T T T T T T T T T T T T T T T T T T T T T T 4x 
||-----------------------------------------------------------|| 
||o---------------------------------------------------------o|| 
||-----------------------------------------------------------|| 
||-----------------------------------------------------------|| 
||o---------------------------------------------------------o|| 
||--5-5-5-5-6-6-6-6-3-3-3-3-4-4-5-5-5-5-6-6-6-6-3-3-3-3-4-4--|| 


Chorus 
4/4 
Gtrs I, II 
PM--| PM PM| PM PM--| PM--| PM PM| PM PM--| 
S S S S S S S S S S S S S S S S S S S S S S S S S S S S S S S S 
||----------------------------------|---------------------------------| 
||o---------------------------------|---------------------------------| 
||----------------------------------|---------------------------------| 
||----------------------------------|---------------------------------| 
||o---------------------------------|---------------------------------| 
||--0-0-0-0-6-0-3-0-0-6-0-5-3-0-3-5-|-0-0-0-0-6-0-3-0-0-6-0-5-3-0-3-5-| 


PM| PM PM| PM PM--| PM| PM PM| PM PM--| 
S S S S S S S S S S S S S S S S S S S S S S S S S S S S S S S S 
|---------------------------------|----------------------------------|| 
|---------------------------------|---------------------------------o|| 
|---------------------------------|----------------------------------|| 
|---------------------------------|----------------------------------|| 
|-1-1-----------------------------|-1-1-----------------------------o|| 
|-----0-0-6-0-3-0-0-6-0-5-3-0-3-5-|-----0-0-6-0-3-0-0-6-0-5-3-0-3-5--|| 


D5 G#5 F5 G#5 G5 F5G5 D5 G#5 F5 G#5 G5F5 F5G5 
Gtrs I, II 
PM--| PM PM| PM PM--| PM--| PM PM| PM PM--| 
S S S S S S S S S S S S S S S S S S S S S S S S S S S S S S S S 
||----------------------------------|----------------------------------| 
||o---------------------------------|----------------------------------| 
||----------------------------------|----------------------------------| 
||--0-------6---3-----6---5-3-------|-0-------6---3-----6---5-3--------| 
||o-0-0-0-0-6-0-3-0-0-6-0-5-3-0-3-5-|-0-0-0-0-6-0-3-0-0-6-0-5-3-0-3-5--| 
||--0-0-0-0-6-0-3-0-0-6-0-5-3-0-3-5-|-0-0-0-0-6-0-3-0-0-6-0-5-3-0-3-5--| 


Bb5 G#5 F5 G#5 G5F5 F5G5 Bb5 G#5 F5 G#5 G5F5 F5G5 
PM| PM PM| PM PM--| PM| PM PM| PM PM--| 
S S S S S S S S S S S S S S S S S S S S S S S S S S S S S S S S 
|---------------------------------|----------------------------------|| 
|---------------------------------|---------------------------------o|| 
|-3-3-----------------------------|-3-3------------------------------|| 
|-3-3-----6---3-----6---5-3-------|-3-3-----6---3-----6---5-3--------|| 
|-1-1-0-0-6-0-3-0-0-6-0-5-3-0-3-5-|-1-1-0-0-6-0-3-0-0-6-0-5-3-0-3-5-o|| 
|-----0-0-6-0-3-0-0-6-0-5-3-0-3-5-|-----0-0-6-0-3-0-0-6-0-5-3-0-3-5--|| 


N.C. 
7/8 
T T T T T T T T T T T T T T T T T T T T T T T T T T T T 
||-----------------------------------------------------------|| 
||o---------------------------------------------------------o|| 
||-----------------------------------------------------------|| 
||-----------------------------------------------------------|| 
||o---------------------------------------------------------o|| 
||--5-5-5-5-6-6-6-6-3-3-3-3-4-4-5-5-5-5-6-6-6-6-3-3-3-3-4-4--|| 


G5 G#5 F5 F#5 G5 G#5 F5 F#5 
T T T T T T T T T T T T T T T T T T T T T T T T T T T T 
||-----------------------------------------------------------|| 
||o---------------------------------------------------------o|| 
||-----------------------------------------------------------|| 
||--5-5-5-5-6-6-6-6-3-3-3-3-4-4-5-5-5-5-6-6-6-6-3-3-3-3-4-4--|| 
||o-5-5-5-5-6-6-6-6-3-3-3-3-4-4-5-5-5-5-6-6-6-6-3-3-3-3-4-4-o|| 
||--5-5-5-5-6-6-6-6-3-3-3-3-4-4-5-5-5-5-6-6-6-6-3-3-3-3-4-4--|| 


Bridge 
N.C. 
4/4 
PM----| PM PM----| PM 
S S S S S S S S S S S S S S S S S S S S S S S S S S S S S S S S 
||-----------------------------------|----------------------------------| 
||o----------------------------------|----------------------------------| 
||-----------------------------------|----------------------------------| 
||-----------------------------------|----------------------------------| 
||o-5-6-5---------5-6-5---7-7-5-10-8-|-5-6-5---------5-6-5---7-7-5-10-8-| 
||--------0-0-0-0-------0------------|-------0-0-0-0-------0------------| 


~ PM------| ~ PM| ~ PM------| ~ PM| 
E S S S S S E S S S S S S S E S S S S S E S S S S S S S 
|------------------------------|-------------------------------|| 
|------------------------------|------------------------------o|| 
|------------------------------|-------------------------------|| 
|------------------------------|-------------------------------|| 
|-------------------8-8-7-10-8-|-------------------8-8-7-10-8-o|| 
|-8-0-0-0-0-0-8-0-0------------|-8-0-0-0-0-0-8-0-0-------------|| 


Gtr I 
PM----| PM PM----| PM 
S S S S S S S S S S S S S S S S S S S S S S S S S S S S S S S S 
|----------------------------------|----------------------------------| 
|----------------------------------|----------------------------------| 
|----------------------------------|----------------------------------| 
|----------------------------------|----------------------------------| 
|-5-6-5---------5-6-5---7-7-5-10-8-|-5-6-5---------5-6-5---7-7-5-10-8-| 
|-------0-0-0-0-------0------------|-------0-0-0-0-------0------------| 
| 
| Gtr II 
| PM----| PM PM----| PM 
| S S S S S S S S S S S S S S S S S S S S S S S S S S S S S S S S 
|----------------------------------|----------------------------------| 
|----------------------------------|----------------------------------| 
|----------------------------------|----------------------------------| 
|-7-8-7---------7-8-7--------------|-7-8-7---------7-8-7--------------| 
|-----------------------7-7-5-10-8-|-----------------------7-7-5-10-8-| 
|-------0-0-0-0-------0------------|-------0-0-0-0-------0------------| 


~ PM------| ~ PM| ~ PM------| ~ PM| 
E S S S S S E S S S S S S S E S S S S S E S S S S S S S 
|------------------------------|---------------------------------| 
|------------------------------|---------------------------------| 
|------------------------------|---------------------------------| 
|------------------------------|---------------------------------| 
|-------------------8-8-7-10-8-|--------------------8--8-7-10--8-| 
|-8-0-0-0-0-0-8-0-0------------|-8-0-0-0-0-0-8-0-0---------------| 
| 
| ~ PM------| ~ PM| ~ PM------| ~ PM| 
| E S S S S S E S S S S S S S E S S S S S E S S S S S S S 
|------------------------------|---------------------------------| 
|------------------------------|---------------------------------| 
|------------------------------|---------------------------------| 
|------------------------------|-------------------10-10-9-12-10-| 
|-------------------8-8-7-10-8-|---------------------------------| 
|-8-0-0-0-0-0-8-0-0------------|-8-0-0-0-0-0-8-0-0---------------| 


7/8 
Gtrs I, II 
T T T T T T T T T T T T T T T T T T T T T T T T T T T T 4x 
||-----------------------------------------------------------|| 
||o---------------------------------------------------------o|| 
||-----------------------------------------------------------|| 
||-----------------------------------------------------------|| 
||o---------------------------------------------------------o|| 
||--5-5-5-5-6-6-6-6-3-3-3-3-4-4-5-5-5-5-6-6-6-6-3-3-3-3-4-4--|| 


Chorus 
4/4 
PM--| PM PM| PM PM--| PM--| PM PM| PM PM--| 
S S S S S S S S S S S S S S S S S S S S S S S S S S S S S S S S 
||----------------------------------|---------------------------------| 
||o---------------------------------|---------------------------------| 
||----------------------------------|---------------------------------| 
||----------------------------------|---------------------------------| 
||o---------------------------------|---------------------------------| 
||--0-0-0-0-6-0-3-0-0-6-0-5-3-0-3-5-|-0-0-0-0-6-0-3-0-0-6-0-5-3-0-3-5-| 


PM| PM PM| PM PM--| PM| PM PM| PM PM--| 
S S S S S S S S S S S S S S S S S S S S S S S S S S S S S S S S 
|---------------------------------|----------------------------------|| 
|---------------------------------|---------------------------------o|| 
|---------------------------------|----------------------------------|| 
|---------------------------------|----------------------------------|| 
|-1-1-----------------------------|-1-1-----------------------------o|| 
|-----0-0-6-0-3-0-0-6-0-5-3-0-3-5-|-----0-0-6-0-3-0-0-6-0-5-3-0-3-5--|| 


Outro 
D5 G#5 F5 G#5 G5F5 F5G5 D5 G#5 F5 G#5 G5F5 F5G5 
PM--| PM PM| PM PM--| PM--| PM PM| PM PM--| 
S S S S S S S S S S S S S S S S S S S S S S S S S S S S S S S S 
||----------------------------------|----------------------------------| 
||o---------------------------------|----------------------------------| 
||----------------------------------|----------------------------------| 
||--0-------6---3-----6---5-3-------|-0-------6---3-----6---5-3--------| 
||o-0-0-0-0-6-0-3-0-0-6-0-5-3-0-3-5-|-0-0-0-0-6-0-3-0-0-6-0-5-3-0-3-5--| 
||--0-0-0-0-6-0-3-0-0-6-0-5-3-0-3-5-|-0-0-0-0-6-0-3-0-0-6-0-5-3-0-3-5--| 


Bb5 G#5 F5 G#5 G5F5 F5G5 Bb5 G#5 F5 G#5 G5F5 F5G5 
PM| PM PM| PM PM--| PM| PM PM| PM PM--| 
S S S S S S S S S S S S S S S S S S S S S S S S S S S S S S S S 3x 
|---------------------------------|----------------------------------|| 
|---------------------------------|---------------------------------o|| 
|-3-3-----------------------------|-3-3------------------------------|| 
|-3-3-----6---3-----6---5-3-------|-3-3-----6---3-----6---5-3--------|| 
|-1-1-0-0-6-0-3-0-0-6-0-5-3-0-3-5-|-1-1-0-0-6-0-3-0-0-6-0-5-3-0-3-5-o|| 
|-----0-0-6-0-3-0-0-6-0-5-3-0-3-5-|-----0-0-6-0-3-0-0-6-0-5-3-0-3-5--|| 


D5 G#5 F5 G#5 G5F5 F5G5 D5 G#5 F5 G#5 G5F5 F5G5 
PM--| PM PM| PM PM--| PM--| PM PM| PM PM--| 
S S S S S S S S S S S S S S S S S S S S S S S S S S S S S S S S 
|---------------------------------|---------------------------------| 
|---------------------------------|---------------------------------| 
|---------------------------------|---------------------------------| 
|-0-------6---3-----6---5-3-------|-0-------6---3-----6---5-3-------| 
|-0-0-0-0-6-0-3-0-0-6-0-5-3-0-3-5-|-0-0-0-0-6-0-3-0-0-6-0-5-3-0-3-5-| 
|-0-0-0-0-6-0-3-0-0-6-0-5-3-0-3-5-|-0-0-0-0-6-0-3-0-0-6-0-5-3-0-3-5-| 


Bb5 G#5 F5 G#5 G5F5 F5G5 
PM| PM PM| PM PM--| 
S S S S S S S S S S S S S S S S 
|---------------------------------| 
|---------------------------------| 
|-3-3-----------------------------| 
|-3-3-----6---3-----6---5-3-------| 
|-1-1-0-0-6-0-3-0-0-6-0-5-3-0-3-5-| 
|-----0-0-6-0-3-0-0-6-0-5-3-0-3-5-| 


Bb5 G#5 F5 G#5 G5F5 F5G5 D5 
PM| PM PM| PM PM--| 
S S S S S S S S S S S S S S S S e H.. 
|---------------------------------|----------*| 
|---------------------------------|----------*| 
|-3-3-----------------------------|----------*| 
|-3-3-----6---3-----6---5-3-------|-0--------*| 
|-1-1-0-0-6-0-3-0-0-6-0-5-3-0-3-5-|-0--------*| 
|-----0-0-6-0-3-0-0-6-0-5-3-0-3-5-|-0--------*| 


Duration Legend 
--------------- 
W - whole; H - half; Q - quarter; E - 8th; S - 16th; T - 32nd; X - 64th; a - acciaccatura 
+ - note tied to previous; . - note dotted; .. - note double dotted 
Uncapitalized letters represent notes that are staccato (1/2 duration) 
Irregular groupings are notated above the duration line 
Duration letters will always appear directly above the note/fret number it represents the 
duration for. Duration letters with no fret number below them represent rests. Multi- 
bar rests are notated in the form Wxn, where n is the number of bars to rest for. Low 
melody durations appear below the staff 

Tablature Legend 
---------------- 
h - hammer-on 
p - pull-off 
b - bend 
pb - pre-bend 
r - bend release (if no number after the r, then release immediately) 
/\ - slide into or out of (from/to "nowhere") 
s - legato slide 
S - shift slide 
- natural harmonic 
[n] - artificial harmonic 
n(n) - tapped harmonic 
~ - vibrato 
tr - trill 
T - tap 
TP - trem. picking 
PM - palm muting 
\n/ - tremolo bar dip; n = amount to dip 
\n - tremolo bar down 
n/ - tremolo bar up 
/n\ - tremolo bar inverted dip 
= - hold bend; also acts as connecting device for hammers/pulls 
<> - volume swell (louder/softer) 
x - on rhythm slash represents muted slash 
o - on rhythm slash represents single note slash 

Misc Legend 
----------- 
| - bar 
|| - double bar 
||o - repeat start 
o|| - repeat end 
*| - double bar (ending) 
: - bar (freetime) 
$ - Segno 
& - Coda
Добавлено: 14.07.2012
Другие материалы по этой песне:

Страница создана 22.02.2012
http://primanota.ru/lamb-of-god/for-your-malice-chords.htm
Привет, Гость.
Предлагаем пройти революционный курс по гитаре.
Подарок от PrimaNota.Ru, забирай!