PrimaNota.ru - самый крупный в мире бесплатный архив песенных текстов, аккордов, табулатур и нот


Lamb Of God - Forgottenlost Angels - текст песни, таба, бас-таба, видео

Регистрация Запомнить меня
Войти через:  Facebook Google Twitter Vk Yandex Mail.ru

Lamb Of God - Forgottenlost Angels - текст песни, таба, бас-таба, видео

Печатать
Просмотров: 333
Уроки эстрадного вокала в Санкт-Петербурге
-------------------------------------------------------------------------------
                             Forgotten (Lost Angels) - Lamb Of God
-------------------------------------------------------------------------------
Tabbed by: Mustaine     
Email: kreator11@gmail.com      

Tuning: Drop D

e|------------------------------------------------------------------------------|
B|------------------------------------------------------------------------------|
G|------------------------------------------------------------------------------|
D|------------------------------------------------------------------------------|
A|---13-------13-12-----12\8----8\7----7--7\6-----13-------13-12----12----------|
D|-0----15-12-------15-------11------7----7\6---0----15-12-------15-------------|
                                                                              

e|------------------------------------------------------------------------------|
B|------------------------------------------------------------------------------|
G|------------------------------------------------------------------------------|
D|------------------------------------------------------------------------------|
A|---------------------7-2----13-------13-12----12\8----8\7----7--7-\6----------|
D|--6/7\6--3-6--6/7\6--7-2--0----15-12-------15------11------7----7-\6----------|
                                                                              

e|------------------------------------------------------------------------------|
B|------------------------------------------------------------------------------|
G|------------------------------------------------------------------------------|
D|--------------------------------------------6---------------------------------|
A|---13-------13-12-----12\8b9r8-5-7-7/8\7-5--4----13-------13-12----12\8-------|
D|-0----15-12-------15---------------------------0----15-12-------15------11----|
                                                                              

e|------------------------------------------------------------------------------|
B|------------------------------------------------------------------------------|
G|------------------------------------------------------------------------------|
D|------------------------------------------------------------------------------|
A|--8\7---7--7\6----13-------13-12----12--------------------7-2-----13----------|
D|------7----7\6--0----15-12-------15----6/7\6--3-6--6/7\6--7-2---0----15-12----|
                                                                              

e|------------------------------------------------------------------------------|
B|------------------------------------------------------------------------------|
G|------------------------------------------------------------------------------|
D|-------------------------------------7-------------7-7-------------7-7--------|
A|-13-12-----12\8b9r8-5-7-7/8\7-5-4----5-------------5-5-------------5-5--------|
D|-------15------------------------------0-0-0-0-0-0-----0-0-0-0-0-0-----0-0-0--|
                                                                              

e|------------------------------------------------------------------------------|
B|------------------------------------------------------------------------------|
G|------------------------------------------------------------------------------|
D|-------7-7-----6-6----10-10------------10-10-------------9-9------------10----|
A|-------5-5-----4-4-----8--8-------------8--8-------------7-7-------------8----|
D|-0-0-0-----0-0-----0-0------0-0-0-0-0-0------0-0-0-0-0-0-----0-0-0-0-0-0------|
                                                                              

e|------------------------------------------------------------------------------|
B|------------------------------------------------------------------------------|
G|------------------------------------------------------------------------------|
D|-10-----13-13-----7--7---------8----------------------------------------------|
A|--8-----11-11-----5--5---------6----13-------13-12----12\8----8\7----7--7\6---|
D|----0-0-------0-0-----------------0----15-12-------15------11------7----7\6---|
                   etc.                                                       

e|------------------------------------------------------------------------------|
B|------------------------------------------------------------------------------|
G|------------------------------------------------------------------------------|
D|------------------------------------------------------------------------------|
A|----13-------13-12----12---------------------7-2-----13-------13-12----12\8---|
D|--0----15-12-------15-----6/7\6--3-6--6/7\6--7-2---0----15-12-------15--------|
                                                                              

e|------------------------------------------------------------------------------|
B|------------------------------------------------------------------------------|
G|------------------------------------------------------------------------------|
D|---------------------------------------0---------------7-------------7-7------|
A|----8\7----7--7-6-----------------4----0---------------5-------------5-5------|
D|-11------7----7-6---6/7\6-3-6-7-3---7--0----6-5-0-3/4----0-0-0-0-0-0-----0-0--|
                                                                              

e|------------------------------------------------------------------------------|
B|------------------------------------------------------------------------------|
G|------------------------------------------------------------------------------|
D|---------7-7-------------------------13-13-13-13------------------------------|
A|---------5-5-------------------------11-11-11-11------------2-1---1---2-1---1-|
D|-0-0-0-0------------------------------------------2b3r2-3-2-----2---2-----2---|
 etc same as earlier besides pause                                            

e|------------------------------------------------------------------------------|
B|------------------------------------------------------------------------------|
G|------------------------------------------------------------------------------|
D|------------------------------------------------------------------------------|
A|----2-1----------2-1---1---3-2---2---4-3------------2-1---1---2-1---1---2-1---|
D|--2-----3--2-3-2-----2---2-----3---3------2b3r2-3-2-----2---2-----2---2-------|
                                                                              

e|------------------------------------------------------------------------------|
B|------------------------------------------------------------------------------|
G|------------------------------------------------------------------------------|
D|------------------------------------------------------------------------------|
A|----------2-1---1----6-5-4-3-2-1-----13-------13-12----12\8----8\7---7--7\6---|
D|-3--2-3-2-----2---2--6-5-4-3-2-1---0----15-12-------15------11-----7----7\6---|
                                                                              

e|------------------------------------------------------------------------------|
B|------------------------------------------------------------------------------|
G|------------------------------------------------------------------------------|
D|------------------------------------------------------------------------------|
A|----13-------13-12----12--------------------7-2----13-------13-12----12\8-----|
D|--0----15-12-------15----6b7r6--3-6--6b7r6--7-2--0----15-12-------15------11--|
                                                                              

e|------------------------------------------------------------------------------|
B|------------------------------------------------------------------------------|
G|------------------------------------------------------------------------------|
D|------------------------------------------------------------------------------|
A|-8\7---7--7\6----13-------13-12----12-----------------5-4---------------------|
D|-----7----7\6--0----15-12-------15----7b8r7-5-7-7b8r7-5-4---------------------|
                                                                              

e|------------------------------------------------------------------------------|
B|------------------------------------------------------------------------------|
G|------------------------------------------------------------------------------|
D|-----------8------7----------6-5----------------8------7-------------4-3-1----|
A|---10-9-10---10-9------8-6---------9----10-9-10---10-9-------8-6--------------|
D|-5-------------------5-----5-----6----5--------------------5-----5-1----------|
                                                                              

e|------------------------------------------------------------------------------|
B|------------------------------------------------------------------------------|
G|------------------------------------------------------------------------------|
D|------------8------7----------6-5-----------------8------7--------------------|
A|----10-9-10---10-9------8-6---------9-----10-9-10---10-9----------------------|
D|--5-------------------5-----5-----6-----5-------------------7b8r7-5-7-7b8r7---|
                                                                              

e|------------------------------------------------------------------------------|
B|------------------------------------------------------------------------------|
G|------------------------------------------------------------------------------|
D|----------------8------7----------6-5---------------8------7------------4-3---|
A|---4----10-9-10---10-9------8-6--------9----10-9-10---10-9------8-6-----------|
D|-5-4--5-------------------5-----5----6----5-------------------5-----5-1-------|
                                                                              

e|------------------------------------------------------------------------------|
B|------------------------------------------------------------------------------|
G|------------------------------------------------------------------------------|
D|-1------------8------7----------6-5----------------8------7-------------------|
A|------10-9-10---10-9------8-6---------9----10-9-10---10-9---------------------|
D|----5-------------------5-----5-----6----5-------------------7b8r7-5-7-7b8r7--|
                                                                              

e|------------------------------------------------------------------------------|
B|------------------------------------------------------------------------------|
G|-----------------2-1---------------1-----------------1---------------1--------|
D|---------------------3-1/2\1---------2-3---------------0-----------------3----|
A|---4---0----------------------------------0--------------3-0-----------4------|
D|-5-4---0-0-0-0-0-------------0-0-0--------0-0-0-0-0--------0-0-0-0-0----------|
                                                                              

e|------------------------------------------------------------------------------|
B|------------------------------------------------------------------------------|
G|------------2-1---1/2\1-------1----------------1-----------------1------------|
D|----------------3---------------2-3----------------3-----------------3--------|
A|--1---------------------------------1------------4----3------------4----------|
D|--1-1-1-1-1-------------1-1-1-------1-1-1-1-1---------3-3-3-3-3---------------|
                                                                        etc   

e|------------------------------------------------------------------------------|
B|------------------------------------------------------------------------------|
G|-------------1-------2---2-2---2---2-2----------------------------------------|
D|-----------------3---2---2-2---2---2-2----3---3-3---6---6--5--5-5-5-5-5-5-----|
A|--2------------4-----0---0-0---0---0-0----1---1-1---6---6--5--5-5-5-5-5-5-----|
D|--2-2-2-2-2----------0---0-0---0---0-0----1---1-1---6---6--5--5-5-5-5-5-5-----|
                                                                        etc   

e|------------------------------------------------------------------------------|
B|------------------------------------------------------------------------------|
G|------------------------------------------------------------------------------|
D|-7-------------7-7-------------7-7-------------7-7-----6-6-----3-3------------|
A|-5-------------5-5-------------5-5-------------5-5-----4-4-----1-1------------|
D|---0-0-0-0-0-0-----0-0-0-0-0-0-----0-0-0-0-0-0-----0-0-----0-0-----0-0-0-0-0--|
                                                                              

e|------------------------------------------------------------------------------|
B|------------------------------------------------------------------------------|
G|------------------------------------------------------------------------------|
D|---3-3---------------------------------------------7-7------------------------|
A|---1-1-------------7-7-------------6-6-----2-2-----5-5------------------------|
D|-0-----0-0-0-0-0-0-7-7-0-0-0-0-0-0-6-6-0-0-2-2-0-0----------------------------|
                                           then it repeats earlier parts      

e|------------------------------------------------------------------------------|
B|------------------------------------------------------------------------------|
G|------------------------------------------------------------------------------|
D|------------------------------------------------------------------------------|
A|----------------4-0-0---------------------------------------------------------|
D|--6/7\6-3-6-6-3-----0---------------------------------------------------------|
           



| /  slide up
| \  slide down
| h  hammer-on
| p  pull-off
| ~  vibrato
| +  harmonic
| x  Mute note
===============================================================================
Добавлено: 25.05.2012
Другие материалы по этой песне:

Страница создана 28.02.2012
http://primanota.ru/lamb-of-god/forgotten-lost-angels-chords.htm
Привет, Гость.
Предлагаем пройти революционный курс по гитаре.
Подарок от PrimaNota.Ru, забирай!