PrimaNota.ru - самый крупный в мире бесплатный архив песенных текстов, аккордов, табулатур и нот


La Dispute - Twas The Night Before Christmas - таба, видео

Регистрация Запомнить меня
Войти через:  Facebook Google Twitter Vk Yandex Mail.ru

La Dispute - Twas The Night Before Christmas - таба, видео

Печатать
Просмотров: 157
LA DISPUTE- Twas the Night Before Christmas.


Probably not many people know this song by La Dispute.
Essentially it is a recital of the well known Christmas
poem, preceded by this guitar. I'm not sure if La Dispute
created the guitar or not, but either way it's a nice song
to learn
  


e|---------------------------------------------------------------------------|
B|---1---3---5/6-5---3---0---------------------------------------------------|
G|-2-------------------------0---2--4--5---2--2---1--2--4---1----------------|
D|-------------------------------------------------------------2-------------|
A|---0---2---3-------------------------0------0------------------------------|
E|-------------------3-------0--------------------------0--------------------|

e|---------------------------------------------------------------------------|
B|---1---3---5/6-5---3---0---------------------------------------------------|
G|-4-------------------------0---2--4--5--4--2---1--0--1---2---2-------------|
D|---------------------------------------------------------------------------|
A|---0---2---3---------------------------------------------0---0-------------|
E|-------------------3-------0---------0---------0---------------------------|


here's the link http://www.youtube.com/watch?v=WvqdJJaC0qE
Добавлено: 16.05.2012
Другие материалы по этой песне:
  • Аккорды и текст

Страница создана 16.05.2012
http://primanota.ru/la-dispute/twas-the-night-before-christmas-chords.htm
Привет, Гость.
Предлагаем пройти революционный курс по гитаре.
Подарок от PrimaNota.Ru, забирай!