PrimaNota.ru - самый крупный в мире бесплатный архив песенных текстов, аккордов, табулатур и нот


Kraftklub - Zu Jung - таба, видео

Регистрация Запомнить меня
Войти через:  Facebook Google Twitter Vk Yandex Mail.ru

Kraftklub - Zu Jung - таба, видео

Печатать
Просмотров: 164
-------------------------------------------------------------------------------
                            Kraftklub -  Zu Jung
-------------------------------------------------------------------------------

Tabbed by: JKlinghoffer

Tuning: Standard


Verse:

Guitar I

e|-----7------7----|-----8------8----|-----7------7----|-----7------8----|
B|-----7------7----|-----8------8----|-----8------8----|-----8------8----|
G|-----7------7----|-----9------9----|-----9------7----|-----9------9----|
D|-----------------|-----------------|-----------------|-----------------|
A|-----------------|-----------------|-----------------|-----------------|
E|-----------------|-----------------|-----------------|-----------------| x4



Pre-Chorus:


Guitar I & II

e|-----------------|---------------------|---------------------|--------------------|
B|-----------------|---------------------|---------------------|--------------------|
G|-----------------|---------------------|-9-9----12-12----9-9-|---12-12------------|
D|-9---9---9---9-9-|---10-10----10---10--|-9-9----12-12----9-9-|---12-12----10---10-|
A|-9---9---9---9-9-|---10-10----10---10--|-7-7----10-10----7-7-|---10-10----10---10-|
E|-7---7---7---7-7-|---8--8-----8----8---|---------------------|------------8----8--| x2


Guitar I 

e|-----7-------7---|---7---7-7------|
B|-----7-------7---|---7---7-7------|
G|-----7-------7---|---7---7-7------|
D|-----------------|----------------|
A|-----------------|----------------|
E|-----------------|----------------|
 |                 |                | 
 |                 |                |
 | Guitar II       |                |
e|-----------------|----------------|
B|-----------------|----------------|
G|-----------------|----------------|
D|-----------------|----------------|
A|-----------------|----------------|
E|-7-------7-------|-7---7---7------|


Refrain:

Guitar I
e|------------------|------------------|------------------|-------------------|
B|------------------|------------------|------------------|-------------------|
G|-----------------9|-9-9----9-9-9-----|-----------------7|-7-7----6-6-6------|
D|-9-9----9-9-9----9|-9-9----9-9-9----7|-7-7----7-7-7----7|-7-7----6-6-6------|
A|-9-9----9-9-9----7|-7-7----7-7-7----7|-7-7----7-7-7----5|-5-5----4-4-4------|
E|-7-7----7-7-7-----|-----------------5|-5-5----5-5-5-----|-------------------| x4
                  
 
 Guitar II
e|-7----------------|------------------|---7--------------|-----10---7------7-|
B|----10---8----7---|-8---7------------|-----10---8---7---|-8------------10---|
G|------------------|---------9---7----|------------------|-------------------|
D|------------------|---------------9--|------------------|-------------------|
A|------------------|------------------|--------------------------------------|
E|------------------|------------------|--------------------------------------| x2

then 
e|---7-7----7-7---7-|------------------|------------------|-----------------7-|
B|------------------|------------------|------------------|-------------------|
G|------------------|---9-9----9-9---9-|------------------|----7-7----6-6-----|
D|------------------|------------------|---7-7----7-7---7-|-------------------|
A|------------------|------------------|------------------|-------------------|
E|------------------|------------------|------------------|-------------------| x2


Verse II
Pre-Chorus II

Bridge I


e|---------|---------|----------------|-----------------|
B|---------|---------|----------------|-----------------|
G|---------|---------|----------------|-----------------|
D|-9-------|-10------|\5---5-5--5-5-5-|--/7-7-7---7\5-5-|
A|-9-------|-10------|\5---5-5--5-5-5-|--/7-7-7---7\5-5-|
E|-7-------|-8-------|\3---3-5--3-3-3-|--/5-5-5---5\3-3-|

Refrain II


Bridge II

e|---------|--------------|----------------|----------------------------------------|
B|---------|--------------|----------------|----------------------------------------|
G|---------|--------------|----------------|----------------------------------------|
D|---------|--------------|----------------|----------------------------------------|
A|-9-----9-|/10 10--9---7-|-5-----5--7-----|----------------------------------------|
E|---------|--------------|----7--------7--|----------------------------------------|

e|--------|--------------|----------------------------|-----------------------------|
B|--------|--------------|----------------------------|-----------------------------|
G|--------|--------------|/12--12-12-12-12-12-12-12-12|/12--14-14-14--14--14\12--12-|
D|--------|--------------|/12--12-12-12-12-12-12-12-12|/12--14-14-14--14--14\12--12-|
A|-9----9-|/10-10--9---7-|/10--10-10-10-10-10-10-10-10|/12--12-12-12--12--12\10--10-|
E|--------|--------------|----------------------------|-----------------------------|

Refrain III

End on Bm


************************************

| /   slide up
| \   slide down
| h   hammer-on
| p   pull-off
| ~   vibrato
| +   harmonic
| x   Mute note
| b   Bend
| pb  Pre-bend
| br  Bend release
| pbr Pre-bend release
| brb Bend release bend

************************************
Добавлено: 08.04.2015
Другие материалы по этой песне:

Страница создана 11.07.2012
http://primanota.ru/kraftklub/zu-jung-chords.htm
Привет, Гость.
Предлагаем пройти революционный курс по гитаре.
Подарок от PrimaNota.Ru, забирай!