PrimaNota.ru - самый крупный в мире бесплатный архив песенных текстов, аккордов, табулатур и нот


Kraftklub - Karl-marx-stadt - таба, видео

Регистрация Запомнить меня
Войти через:  Facebook Google Twitter Vk Yandex Mail.ru

Kraftklub - Karl-marx-stadt - таба, видео

Печатать
Просмотров: 119
-------------------------------------------------------------------------------
                             Karl-Marx-Stadt by KRAFTKLUB 
-------------------------------------------------------------------------------
Tabbed by:
E-mail:

Tuning:
intro+verse
e|-11------------------------------------------------------------------------|
B|-----------11------10------11----------------------------------------------|
G|----9----9-----9-------9--------9------------------------------------------|
D|---------------------------------------------------------------------------|
A|---------------------------------------------------------------------------|
E|---------------------------------------------------------------------------|
Chorus ... Iiiiich komm aus karl marx stadt
e|---------------------------------------------------------------------------|
B|---------------------------------------------------------------------------|
G|---------------------------------------------------------------------------|
D|---------------------------------------------------------------------------|
A|----------7-------------------5---------------------------------------------|
E|---3--0-------0--3--0--3--0--------0--------------------------------------|
Den vers dann wieder wie im intro.

Chorus dann wieder wie oben.

Jetzt die stelle " alle arme hoch, für die stadt aus der ihr kommt!"
e|--------------7--10---10----7---------------8--7---------------------------|
B|-------8-8----------9--------------------8---------------------------------|
G|--9-9-------------------------------9--------------------------------------|
D|---------------------------------------------------------------------------|
A|---------------------------------------------------------------------------|
E|---------------------------------------------------------------------------|

e|---------------------------------------------------------------------------|
B|---------------------------------------------------------------------------|
G|----------------------------------------7--6--------------------------9-7--|
D|---------5----4----9-9--7-7--9-9--7-7---------7---9-9--7-7--9-9--7-7------9|
A|---------5----4------------------------------------------------------------|
E|---0-----3----2------------------------------------------------------------|
dann powerchord slide von unten nach oben, auf der tiefen e seite, und das aus dem chorus nochmal, 
bis das lied endet. 
Viel spass!

Hier: wie man den aller letzten teil spielt
A|-----7-----------------|
E|-3-0---0-3-0-3-5-6-5-3-|
************************************

| /   slide up
| \   slide down
| h   hammer-on
| p   pull-off
| ~   vibrato
| +   harmonic
| x   Mute note
| b   Bend
| pb  Pre-bend
| br  Bend release
| pbr Pre-bend release
| brb Bend release bend

************************************
Добавлено: 13.05.2016
Другие материалы по этой песне:

Страница создана 19.11.2013
http://primanota.ru/kraftklub/karl-marx-stadt-chords.htm
Привет, Гость.
Предлагаем пройти революционный курс по гитаре.
Подарок от PrimaNota.Ru, забирай!