PrimaNota.ru - самый крупный в мире бесплатный архив песенных текстов, аккордов, табулатур и нот


Kraftklub - Eure Mdchen - таба, видео

Регистрация Запомнить меня
Войти через:  Facebook Google Twitter Vk Yandex Mail.ru

Kraftklub - Eure Mdchen - таба, видео

Печатать
Просмотров: 387
Уроки эстрадного вокала в Санкт-Петербурге
-----------------------------------
KRAFTKLUB (mit K) - "Euere Mädchen"
-----------------------------------

Tabbed by "Patrick"
Mail: para.chute@gmx.de

Intro and Verse:

e--------------------|
h--------------------|
G-----9-----5--7-----|
D--2--9--9--5--7--5--|
A--2--7--9--3--5--5--|
E--------7--------3--|

Chorus:

e-------------------|
h-------------------|
G--999-----5--7-----|
D--999--9--5--7--5--|
A--777--9--3--5--5--|
E-------7--------3--|

Bridge: 

e------------------------------------------------------|
h------------------------------------------------------|
G------------------------------------------------------|
D--7-5-7-5-7-5-7-5--9--7--5-------------------5--9--7--|
A-------------------9--7--5--7-5-7-5-7-5-7-5--5--9--7--|
E-------------------7--5--3-------------------3--7--5--|

End of the Interlude:

e-------------------------------|
h-------------------------------|
G-------------------------------|
D--7-7-7--5-7-5--9-9-9--222222--|
A--7-7-7---------9-9-9--222222--|
E--5-5-5---------7-7-7----------|

Last Chorus end on:

e-----|
h-----|
G--9--|
D--9--|
A--7--|
E-----|


LYRICS:

INTRO: (0.00)

1st VERSE: (0.06)

Wir bekomm' leider nix mit
an der Bar im Atomino.

Wir ham gehört unsere Songs laufen im Radio
und im Fernsehen.

Darf man das ignorieren?
Muss man das ernstnehmen?
Will man das diskutiern?

Kredibilität liegt immer noch in weiter Ferne.
Wir sind
nicht Tocotronic
und wir sind auch nicht die Sterne.
Wir sind
so wie wir sind,
klingen wie wir klingen,
auch wenn die Indiepolizeisirene blinkt.

CHORUS: (0.30)

(o-wah-o-wahoo)

Wir sind nicht kredibil!

(o-wah-o-wahoo)

Wir machen Popmusik!

(o-wah-o-wahoo)

Wir sind nicht wie die anderen Jungs, 

(o-wah-o-wahoo)

doch eure Mädchen tanzen mit uns!

2nd VERSE: (0.42)

Wir sind wieder auf der Autobahn,
immer dasselbe!
Die Haut fahl, Mundgeruch und wir sind erkältet.
Auf Tour jeden Tag,
irgendwas ist immer los.
Hundertvierzig Shows ohne eine Nase Koks.

Soso.

wir machen Atzenmusik?
Alles klar.
Für das nächste Mal dann "Kraftclub" mit k!

Wir schrauben Hits,
kommt das Album dieses Jahr?
Wir glauben nicht,
denn im Studio sind 44 Grad!

BRIDGE: (1.08)

Wir laufen im Radio-jo-jo
woh-oh-oh-oh!

Unser Lied im Radio-jo-jo
woh-oh-oh-oh!

Wir laufen im radio-o-o-oh!

Yeah!

3rd VERSE: (1.35)

Jetzt sind wir Kommerz,
dank Medienpräsenz.
Uns schlottern die Knie
und wir reden mit den Fans.

Echt!

Ihr müsst uns glauben -
Wir setzen die Trends,
denn bei uns klauen alle diese schwedischen Bands.

CHORUS: (1.46)

(o-wah-o-wahoo)

Wir sind nicht kredibil!

(o-wah-o-wahoo)

Wir machen Popmusik!

(o-wah-o-wahoo)

Wir sind nicht wie die anderen Jungs,

(o-wah-o-wahoo)

doch eure Mädchen tanzen mit uns!

INTERLUDE: (1.58)

Wir sind nicht so wie die anderen Jungs.
Der große Hype ist vorbei!
Eure Mädchen tanzen mit uns.
Wir ham' nicht mehr 2001!

CHORUS: (2.28)

Wir sind nicht kredibil!

(o-wah-o-wahoo)

Wir machen Popmusik!

(o-wah-o-wahoo)

Wir sind nicht wie die anderen Jungs,

(o-wah-o-wahoo)

doch eure Mädchen tanzen mit uns!

(o-wah-o-wahoo)

Wir sind nicht kredibil!

(o-wah-o-wahoo)

Wir machen Popmusik!

(o-wah-o-wahoo)

Wir sind nicht wie die anderen Jungs,

(o-wah-o-wahoo)

doch eure Mädchen tanzen mit uns!
Добавлено: 26.11.2013
Другие материалы по этой песне:
  • Аккорды и текст

Страница создана 05.07.2013
http://primanota.ru/kraftklub/eure-mdchen-chords.htm
Привет, Гость.
Предлагаем пройти революционный курс по гитаре.
Подарок от PrimaNota.Ru, забирай!