PrimaNota.ru - самый крупный в мире бесплатный архив песенных текстов, аккордов, табулатур и нот


Kraftklub - Für Immer - таба, видео

Регистрация Запомнить меня
Войти через:  Facebook Google Twitter Vk Yandex Mail.ru

Kraftklub - Für Immer - таба, видео

Печатать
Просмотров: 44
-------------------------------------------------------------------------------
                             Für Immer - Kraftklub
-------------------------------------------------------------------------------
Tabbed by: Kraftklubberik
E-mail:erik.brattke@web.de
Tab incomplete, please comment and correct.
Tuning:Standart


Guitar Intro
e|---------------------------------------------------------------------------|
B|---------------------------------------------------------------------------|
G|---------------------------------------------------------------------------|
D|--4-4-4-4-4-4-4-4--7-7-7-7-7-7-7-7--9-9-9-9-9-9-9-9-9-11-11-11-11-7-7-7-7--|
A|--4-4-4-4-4-4-4-4--7-7-7-7-7-7-7-7--9-9-9-9-9-9-9-9-9-11-11-11-12-7-7-7-7--|
E|--2-2-2-2-2-2-2-2--5-5-5-5-5-5-5-5--7-7-7-7-7-7-7-7-7--9--9--9--9-5-5-5-5--|



Guitar Verse ,,Ich bin ein positiver Mensch..."
e|---------------------------------------------------------------------------|
B|---------------------------------------------------------------------------|
G|---7---12-----------------7--12--------------------------------------------|
D|---7---12---12---7-\--9---7--12---4----------------------------------------|
A|---5---10---12---7-\--9---5--10---4------------------------------------------|
E|------------10---5-\--7-----------2-----------------------------------------|
Guitar Verse ,,Die Beziehung ist vorbei..." (Die beiden ^ immer abwechselnd)
e|---------------------------------------------------------------------------|
B|---------------------------------------------------------------------------|
G|----7---12----------------7------------------------------------------------|
D|----7---12---12---7---9---7--7---4-----------------------------------------|
A|----5---10---12---7---7---5--7---4-----------------------------------------|
E|-------------10---5---7------5---2-----------------------------------------|



Verse end
e|---------------------------------------------------------------------------|
B|---------------------------------------------------------------------------|
G|-----7----10-----6-------------------------------------------------------|
D|-----7----10-----6---------------------------------------------------------|
A|-----5-----8-----4---------------------------------------------------------|
E|---------------------------------------------------------------------------|

Chorus abwechselnd 1. wie Intro ^ und 2.                                     --9-|
D|---4-4-4-4-4-4-4-4-7-7-7-7-7-7-7-7-9-9-9-9-9-9-9-9--11-11-11-11-11-11-11-11--9-|4x den letzten
A|---4-4-4-4-4-4-4-4-7-7-7-7-7-7-7-7-9-9-9-9-9-9-9-9--11-11-11-11-11-11-11-11--7-|
E|---2-2-2-2-2-2-2-2-5-5-5-5-5-5-5-5-7-7-7-7-7-7-7-7--9--9--9--9--9--9--9--9-----|

Danach wieder Verse...

Schlagzeug und klatschende Hände
Anstatt der Drums spielt Karl immer die seiten über dem Sattel an (schrill)


Intro
Verse
Verse End
Chorus 1.&2.
Verse
VerseEnd
Chorus 1.&2.



************************************

| /   slide up
| \   slide down
| h   hammer-on
| p   pull-off
| ~   vibrato
| +   harmonic
| x   Mute note
| b   Bend
| pb  Pre-bend
| br  Bend release
| pbr Pre-bend release
| brb Bend release bend

************************************
Добавлено: 13.05.2016
Другие материалы по этой песне:
  • Аккорды и текст

Страница создана 13.05.2016
http://primanota.ru/kraftklub/fur-immer-chords.htm
Привет, Гость.
Предлагаем пройти революционный курс по гитаре.
Подарок от PrimaNota.Ru, забирай!