PrimaNota.ru - самый крупный в мире бесплатный архив песенных текстов, аккордов, табулатур и нот


Kraftklub - Randale - таба, бас-таба, видео

Регистрация Запомнить меня
Войти через:  Facebook Google Twitter Vk Yandex Mail.ru

Kraftklub - Randale - таба, бас-таба, видео

Печатать
Просмотров: 150
-------------------------------------------------------------------------------
                             RANDALE - Kraftklub
-------------------------------------------------------------------------------
Tabbed by: kraftklubberik
E-mail: erik.brattke@web.de
Adonis Maximus Version
Tuning: Standart

Guitar/Bass (Intro + Verse) 2x times
e|---------------------------------------------------------------------------|
B|---------------------------------------------------------------------------|
G|---------------------------------------------------------------------------|
D|---------------------------------------------------------------------------|
A|---7--5-----------5--------5-----5------7--5-----------5-----------5-------|
E|---------7--5--7-----5--7-----7---------------7--5--7-----7--5--7-----7--5-|



Guitar - Chorus (Hey - Randale, Hey Hey Randale)
e|---------------------------------------------------------------------------|
B|---------------------------------------------------------------------------|
G|-----------------5--5--5--5----9--9--9--9-----10-10-10-10------------------|
D|--7--7--7--7-----5--5--5--5----9--9--9--9-----10-10-10-10------------------|
A|--7--7--7--7-----3--3--3--3----7--7--7--7------8--8--8--8------------------|
E|--5--5--5--5---------------------------------------------------------------|

e|---------------------------------------------------------------------------|
B|-----------------------------------------------9--9--9--9------------------|
G|----------------5--5--5--5-----10-10-10-10-----9--9--9--9------------------|
D|--7--7--7--7----5--5--5--5-----10-10-10-10-----7--7--7--7------------------|
A|--7--7--7--7----3--3--3--3------8--8--8--8---------------------------------|
E|--5--5--5--5---------------------------------------------------------------|









************************************

| /   slide up
| \   slide down
| h   hammer-on
| p   pull-off
| ~   vibrato
| +   harmonic
| x   Mute note
| b   Bend
| pb  Pre-bend
| br  Bend release
| pbr Pre-bend release
| brb Bend release bend

************************************
Добавлено: 13.05.2016
Другие материалы по этой песне:
  • Аккорды и текст

Страница создана 04.03.2014
http://primanota.ru/kraftklub/randale-chords.htm
Привет, Гость.
Предлагаем пройти революционный курс по гитаре.
Подарок от PrimaNota.Ru, забирай!