PrimaNota.ru - самый крупный в мире бесплатный архив песенных текстов, аккордов, табулатур и нот


Kix - Girl Money - текст песни, таба, видео

Регистрация Запомнить меня
Войти через:  Facebook Google Twitter Vk Yandex Mail.ru

Kix - Girl Money - текст песни, таба, видео

Печатать
Просмотров: 120
-----------------------------------------------------------------------------
                                  
                         Girl Money - Kix (GUITAR)
            
-----------------------------------------------------------------------------
Tabbed by: Scotto10

Tuning: down one half step

=============================================================================

Guitar 1



     Q.     Q.     E  E     Q.     H        E     Q.     H        E   
E||----------------------|---------------------|---------------------|
B||----------------------|---------3--------L--|---------------------|
G||--2------2------2--2--|---------2--------L--|--2------0--------L--|
D||--2------2------2--2--|--2------0--------L--|--2------0--------L--|
A||--0------0------0--0--|--2------------------|--0------------------|
E||----------------------|--0------------------|---------3--------L--|


  Q.     H        E     Q.     H        E     Q.     H        E   
---------------------|---------------------|---------------------|
---------3--------L--|---------------------|---------3--------L--|
---------2--------L--|--2------0--------L--|---------2--------L--|
--2------0--------L--|--2------0--------L--|--2------0--------L--|
--2------------------|--0------------------|--2------------------|
--0------------------|---------3--------L--|--0------------------|


  Q.     H        E     Q.     H        E     Q.     Q.     Q     
---------------------|---------------------|---------------------|
---------------------|---------3--------L--|---------------------|
--2------0--------L--|---------2--------L--|--2------2------2----|
--2------0--------L--|--2------0--------L--|--2------2------2----|
--0------------------|--2------------------|--0------0------0----|
---------3--------L--|--0------------------|---------------------|


  E  Q.     E  E  Q       E  E  E  E  H           E  E  E  E  H         
-----------------------|-----------------------|-----------------------|
-----------------------|-----------------------|-----------3-----------|
--L--2------2--2--2----|--4-----x--------------|--2-----x--2-----------|
--L--2------2--2--2----|--4-----x--2-----------|--2-----x--0-----------|
--L--0------0--0--0----|--2-----x--2-----------|--0-----x--------------|
-----------------------|-----------0-----------|-----------------------|


  E  E  E  E  H           E  E  E  E  H           E  E  E  E  H         
-----------------------|-----------------------|-----------------------|
-----------------------|-----------3-----------|-----------------------|
--4-----x--------------|--2-----x--2-----------|--4-----x--------------|
--4-----x--2-----------|--2-----x--0-----------|--4-----x--2-----------|
--2-----x--2-----------|--0-----x--------------|--2-----x--2-----------|
-----------0-----------|-----------------------|-----------0-----------|


  E  E  E  E  H           E  Q    E  H           E  E  E  E  Q.     E    
-----------------------|----------------------|-------------------------|
-----------3-----------|----------------------|-----------3-------------|
--2-----x--2-----------|--4-------------------|--2-----x--2-------------|
--2-----x--0-----------|--4-------2-----------|--2-----x--0-------------|
--0-----x--------------|--2-------2-----------|--0-----x------------0h--|
-----------------------|----------0-----------|-------------------------|


  E  E  E  E  H           E  E  E  E  Q.     E      E  E  E  E  H         
-----------------------|-------------------------|-----------------------|
-----------------------|-----------3-------------|-----------------------|
--4-----x--------------|--2-----x--2-------------|--4-----x--------------|
--4-----x--2-----------|--2-----x--0-------------|--4-----x--2-----------|
--2-----x--2-----------|--0-----x------------0h--|--2-----x--2-----------|
-----------0-----------|-------------------------|-----------0-----------|


  E  E  E  E  Q.     E      E  E  E  E  H           E  E  E  E  Q.     E    
-------------------------|-----------------------|-------------------------|
-----------3-------------|-----------------------|-----------3-------------|
--2-----x--2-------------|--4-----x--------------|--2-----x--2-------------|
--2-----x--0-------------|--4-----x--2-----------|--2-----x--0-------------|
--0-----x------------0h--|--2-----x--2-----------|--0-----x------------0h--|
-------------------------|-----------0-----------|-------------------------|


  E  Q    E  H           Q.     H        E     Q.     H        E   
----------------------|---------------------|---------------------|
----------------------|---------3--------L--|---------3--------L--|
--4-------------------|--2------2--------L--|---------2--------L--|
--4-------2-----------|--2------0--------L--|--2------0--------L--|
--2-------2-----------|--0------------------|--2------------------|
----------0-----------|---------------------|--0------------------|


  Q.     H        E     Q.     H        E     Q.     H        E   
---------------------|---------------------|---------------------|
---------------------|---------3--------L--|---------------------|
--2------0--------L--|---------2--------L--|--2------0--------L--|
--2------0--------L--|--2------0--------L--|--2------0--------L--|
--0------------------|--2------------------|--0------------------|
---------3--------L--|--0------------------|---------3--------L--|


  Q.     H        E     Q.     H        E     Q.     Q    E  E  E   
---------------------|---------------------|-----------------------|
---------3--------L--|---------------------|---------3----3--3--3--|
---------2--------L--|--2------0--------L--|---------2----2--2--2--|
--2------0--------L--|--2------0--------L--|--2------0----0--0--0--|
--2------------------|--0------------------|--2--------------------|
--0------------------|---------3--------L--|--0--------------------|


  E   E  E  E   E  E  E   E     E  E   E  E  E   E  E  E   
-----------------------------|----------------------------|
-----------------------------|----------------------------|
--0h--2--2--0h--2--2--0h--2--|--2--0h--2--2--0h--2--2--2--|
--0h--2--2--0h--2--2--0h--2--|--2--0h--2--2--0h--2--2--2--|
------0--0------0--0------0--|--0------0--0------0--0--0--|
-----------------------------|----------------------------|


  E  E  E  E  H           E  E  E  E  H           E  E  E  E  H         
-----------------------|-----------------------|-----------------------|
-----------------------|-----------3-----------|-----------------------|
--4-----x--------------|--2-----x--2-----------|--4-----x--------------|
--4-----x--2-----------|--2-----x--0-----------|--4-----x--2-----------|
--2-----x--2-----------|--0-----x--------------|--2-----x--2-----------|
-----------0-----------|-----------------------|-----------0-----------|


  E  E  E  E  Q.     E      E  E  E  E  H           E  E  E  E  Q.     E    
-------------------------|-----------------------|-------------------------|
-----------3-------------|-----------------------|-----------3-------------|
--2-----x--2-------------|--4-----x--------------|--2-----x--2-------------|
--2-----x--0-------------|--4-----x--2-----------|--2-----x--0-------------|
--0-----x------------0h--|--2-----x--2-----------|--0-----x------------0h--|
-------------------------|-----------0-----------|-------------------------|


  E  E  H        Q       H.            Q        Q.     H        E   
----------------------|----------------------|---------------------|
----------------------|----------------------|---------3--------L--|
--4-------------------|----------------------|---------2--------L--|
--4-------------------|----------------------|--2------0--------L--|
--2-------------------|---------------12\----|--2------------------|
----------------------|---------------12\----|--0------------------|


  Q.     H        E     Q.     H        E     Q.     H        E   
---------------------|---------------------|---------------------|
---------------------|---------3--------L--|---------------------|
--2------0--------L--|---------2--------L--|--2------0--------L--|
--2------0--------L--|--2------0--------L--|--2------0--------L--|
--0------------------|--2------------------|--0------------------|
---------3--------L--|--0------------------|---------3--------L--|


  Q.     H        E     Q.     H        E     Q.     H        E   
---------------------|---------------------|---------------------|
---------3--------L--|---------------------|---------3--------L--|
---------2--------L--|--2------0--------L--|---------2--------L--|
--2------0--------L--|--2------0--------L--|--2------0--------L--|
--2------------------|--0------------------|--2------------------|
--0------------------|---------3--------L--|--0------------------|


  Q.     Q    E  E  E     E  E  E  Q.     E  E     Q    E  H        E   
-----------------------|------------------------|----------------------|
-----------------------|-----------3------3--3--|----------------------|
--2------2----2--2--2--|-----------2------2--2--|--2----2--0--------L--|
--2------2----2--2--2--|-----------0------0--0--|--2----2--0--------L--|
--0------0----0--0--0--|--2---------------------|--0----0--------------|
-----------------------|--0--3--4---------------|----------3--------L--|


  E  E  E    Q.     E  E     Q.     Q    E  E  E     E  E  E  Q.     E  E   
--------------------------|-----------------------|------------------------|
-------------3------3--3--|-----------------------|-----------3------3--3--|
-------------2------2--2--|--2------0----0--0--0--|-----------2------2--2--|
-------------0------0--0--|--2------0----0--0--0--|-----------0------0--0--|
--2-----------------------|--0--------------------|--2---------------------|
--0--3--3b~---------------|---------3----3--3--3--|--0--3--4---------------|


  Q    E  H        E     E  E  E  Q.     E  E     E  E  E  E  E  E  E  E   
----------------------|------------------------|--------------------------|
----------------------|-----------3------3--3--|--3--------3--------3-----|
--2----2--0--------0--|-----------2------2--2--|--2--2--2--2--2--2--2--2--|
--2----2--0--------0--|-----------0------0--0--|--0--2--2--0--2--2--0--2--|
--0----0--------------|--2---------------------|-----0--0-----0--0-----0--|
----------3--------3--|--0--3--4---------------|--------------------------|


  E  E  E  E  E  E  E  E     E  E  E  E  H           E  E  E  E  H         
--------------------------|-----------------------|-----------------------|
-----3--------3-----------|-----------------------|-----------3-----------|
--2--2--2--2--2--2--2--2--|--4-----x--------------|--2-----x--2-----------|
--2--0--2--2--0--2--2--2--|--4-----x--2-----------|--2-----x--0-----------|
--0-----0--0-----0--0--0--|--2-----x--2-----------|--0-----x--------------|
--------------------------|-----------0-----------|-----------------------|


  E  E  E  E  H           E  E  E  E  E  E  E  E     E  E  E  E  H         
-----------------------|--------------------------|-----------------------|
-----------------------|-----------3-----3--3-----|-----------------------|
--4-----x--------------|--2-----x--2-----2--2--2--|--4-----x--------------|
--4-----x--2-----------|--2-----x--0-----0--0--2--|--4-----x--2-----------|
--2-----x--2-----------|--0-----x--------------0--|--2-----x--2-----------|
-----------0-----------|--------------------------|-----------0-----------|


  E  E  E  E  Q    Q        E  E  E  E  H           E  E  E  E  E  E  E  E   
-------------------------|-----------------------|--------------------------|
-----------3-------3b----|-----------------------|-----------3-----3--3--3--|
--2-----x--2-------2b----|--4-----x--------------|--2-----x--2-----2--2--2--|
--2-----x--0-------------|--4-----x--2-----------|--2-----x--0-----0--0--0--|
--0-----x----------------|--2-----x--2-----------|--0-----x-----------------|
-------------------------|-----------0-----------|--------------------------|


  E  E  E  E  H           E  E  E  E  H           E  E  E  E  H         
-----------------------|-----------------------|-----------------------|
-----------------------|-----------3-----------|-----------------------|
--4-----x--------------|--2-----x--2-----------|--4-----x--------------|
--4-----x--2-----------|--2-----x--0-----------|--4-----x--2-----------|
--2-----x--2-----------|--0-----x--------------|--2-----x--2-----------|
-----------0-----------|-----------------------|-----------0-----------|


  Q.     Q    Q    E     Q.     H        E     Q.     H        E   
----------------------|---------------------|---------------------|
---------3----3----3--|---------------------|---------3--------L--|
--2------2----2----2--|--4------------------|--2------2--------L--|
--2------0----0----0--|--4------2--------L--|--2------0--------L--|
--0-------------------|--2------2--------L--|--0------------------|
----------------------|---------0--------L--|---------------------|


  Q.     H        E     Q.     H        E     Q.     H        E   
---------------------|---------------------|---------------------|
---------------------|---------3--------L--|---------------------|
--4------------------|--2------2--------L--|--4------------------|
--4------2--------L--|--2------0--------L--|--4------2--------L--|
--2------2--------L--|--0------------------|--2------2--------L--|
---------0--------L--|---------------------|---------0--------L--|


  Q.     H        E     Q.     H        E     E   E  E  E   E  E  E   E   
---------------------|---------------------|-----------------------------|
---------3--------L--|---------------------|-----------------------------|
--2------2--------L--|--4------------------|--0h--2--2--0h--2--2--0h--2--|
--2------0--------L--|--4------2--------L--|--0h--2--2--0h--2--2--0h--2--|
--0------------------|--2------2--------L--|------0--0------0--0------0--|
---------------------|---------0--------L--|-----------------------------|


  E  E   E  E  E   E  E  E     Q.     H        E     Q.     H        E   
----------------------------|---------------------|---------------------|
----------------------------|---------3--------L--|---------------------|
--2--0h--2--2--0h--2--2--2--|---------2--------L--|--2------0--------L--|
--2--0h--2--2--0h--2--2--2--|--2------0--------L--|--2------0--------L--|
--0------0--0------0--0--0--|--2------------------|--0------------------|
----------------------------|--0------------------|---------3--------L--|


  Q.     H        E     Q.     H        E     Q.     H        E   
---------------------|---------------------|---------------------|
---------3--------L--|---------------------|---------3--------L--|
---------2--------L--|--2------0--------L--|---------2--------L--|
--2------0--------L--|--2------0--------L--|--2------0--------L--|
--2------------------|--0------------------|--2------------------|
--0------------------|---------3--------L--|--0------------------|


  Q.     H        E     Q.     Q    E  E  E     Q.     Q    E  E  E   
---------------------|-----------------------|-----------------------|
---------------------|---------3----3--3--3--|-----------------------|
--2------0--------L--|---------2----2--2--2--|--2------2----2--2--2--|
--2------0--------L--|--2------0----0--0--0--|--2------2----2--2--2--|
--0------------------|--2--------------------|--0------0----0--0--0--|
---------3--------L--|--0--------------------|-----------------------|


  E  E  E  Q.     E  E     Q    E  H        E     E  E  E    Q.     E  E   
------------------------|----------------------|--------------------------|
-----------3------3--3--|----------------------|-------------3------3--3--|
-----------2------2--2--|--2----L--0--------L--|-------------2------2--2--|
-----------0------0--0--|--2----L--0--------L--|-------------0------0--0--|
--2---------------------|--0----L--------------|--2-----------------------|
--0--3--4---------------|----------3--------L--|--0--3--3b~---------------|


  Q.     H        E     E  E  E  Q.     E  E     Q    E  H        E   
---------------------|------------------------|----------------------|
---------------------|-----------3------3--3--|----------------------|
--2------0--------L--|-----------2------2--2--|--2----2--0--------0--|
--2------0--------L--|-----------0------0--0--|--2----2--0--------0--|
--0------------------|--2---------------------|--0----0--------------|
---------3--------L--|--0--3--4---------------|----------3--------3--|


  E  E  E  Q.     E  E     W                   W                 
------------------------|-------------------|-------------------|
-----------3------3--3--|-------------------|-------------------|
-----------2------2--2--|--2----------------|--L----------------|
-----------0------0--0--|--2----------------|--L----------------|
--2---------------------|--0----------------|--L----------------|
--0--3--4---------------|-------------------|-------------------|


  Q.     H        E     Q.     H        E     Q.     H        E   
---------------------|---------------------|---------------------|
---------3--------L--|---------------------|---------3--------L--|
---------2--------L--|--2------0--------L--|---------2--------L--|
--2------0--------L--|--2------0--------L--|--2------0--------L--|
--2------------------|--0------------------|--2------------------|
--0------------------|---------3--------L--|--0------------------|


  Q.     H        E     Q.     H        E     Q.     H        E   
---------------------|---------------------|---------------------|
---------------------|---------3--------L--|---------------------|
--2------0--------L--|---------2--------L--|--2------0--------L--|
--2------0--------L--|--2------0--------L--|--2------0--------L--|
--0------------------|--2------------------|--0------------------|
---------3--------L--|--0------------------|---------3--------L--|


  Q.     H        E     E   E  E  E   E  E  E   E     Q.     H        E   
---------------------|-----------------------------|---------------------|
---------3--------L--|-----------------------------|---------3--------L--|
---------2--------L--|--0h--2--2--0h--2--2--0h--2--|---------2--------L--|
--2------0--------L--|--0h--2--2--0h--2--2--0h--2--|--2------0--------L--|
--2------------------|------0--0------0--0------0--|--2------------------|
--0------------------|-----------------------------|--0------------------|


  Q.     H        E     Q.     H        E     Q.     H        E   
---------------------|---------------------|---------------------|
---------------------|---------3--------L--|---------------------|
--2------0--------L--|---------2--------L--|--2------0--------L--|
--2------0--------L--|--2------0--------L--|--2------0--------L--|
--0------------------|--2------------------|--0------------------|
---------3--------L--|--0------------------|---------3--------L--|


  Q.     H        E     Q.     H        E     Q.     H        E   
---------------------|---------------------|---------------------|
---------3--------L--|---------------------|---------3--------L--|
---------2--------L--|--2------0--------L--|---------2--------L--|
--2------0--------L--|--2------0--------L--|--2------0--------L--|
--2------------------|--0------------------|--2------------------|
--0------------------|---------3--------L--|--0------------------|


  E   E  E  E   E  E  E   E     Q.     H        E     Q.     H        E   
-----------------------------|---------------------|---------------------|
-----------------------------|---------3--------L--|---------------------|
--0h--2--2--0h--2--2--0h--2--|---------2--------L--|--2------0--------L--|
--0h--2--2--0h--2--2--0h--2--|--2------0--------L--|--2------0--------L--|
------0--0------0--0------0--|--2------------------|--0------------------|
-----------------------------|--0------------------|---------3--------L--|


  Q.     H        E     Q.     H        E     Q.     H        E   
---------------------|---------------------|---------------------|
---------3--------L--|---------------------|---------3--------L--|
---------2--------L--|--2------0--------L--|---------2--------L--|
--2------0--------L--|--2------0--------L--|--2------0--------L--|
--2------------------|--0------------------|--2------------------|
--0------------------|---------3--------L--|--0------------------|


  Q.     H        E     Q.     H        E     Q.     H        E   
---------------------|---------------------|---------------------|
---------------------|---------3--------L--|---------------------|
--2------0--------L--|---------2--------L--|--2------0--------L--|
--2------0--------L--|--2------0--------L--|--2------0--------L--|
--0------------------|--2------------------|--0------------------|
---------3--------L--|--0------------------|---------3--------L--|


  Q.     H        E     Q.     H        E                            
---------------------|---------------------|-----|-----|-----|-----||
---------3--------L--|---------------------|-----|-----|-----|-----||
---------2--------L--|--2------0--------L--|-----|-----|-----|-----||
--2------0--------L--|--2------0--------L--|-----|-----|-----|-----||
--2------------------|--0------------------|-----|-----|-----|-----||
--0------------------|---------3--------L--|-----|-----|-----|-----||



=============================================================================

Guitar 2



             H        Q     Q        Q.      H          E   
E||-------|----------------------|-------------------------|
B||-------|----------------------|-------------------------|
G||-------|----------------12----|-------------------------|
D||-------|----------------------|--14------12~---------L--|
A||-------|----------------------|-------------------------|
E||-------|----------------------|-------------------------|


   Q.      Q.      Q        Q.      H          E   
------------------------|-------------------------|
------------------------|-------------------------|
----------14------12----|-------------------------|
--14--------------------|--14------12~---------L--|
------------------------|-------------------------|
------------------------|-------------------------|


  Q     E    E   E      E   E   E   
-----------------------------------|
------------15---------------------|
-------14b-------Lpbr--12------12--|
---------------------------14------|
-----------------------------------|
-----------------------------------|


               |--3--|  |--3--|  |--3--|  |--3--|  
   Q     Q     S  S  S  S  S  S  S  S  S  S  S  S  
--------------------------------------------------|
--------------------------------------------------|
---------7\---------------------------------------|
--12\----7\----2p-0h-2p-0h-2p-0h-2p-0h-2p-0h-2p-0-|
--12\----7\---------------------------------------|
--12\---------------------------------------------|


                                       PH                       
  Q     E    E   E      E   Q          Q.       Q.       Q      
---------------------------------|-----------------------------|
------------15-------------------|-----------------------------|
-------14b-------Lpbr--12--------|--<>14~------14~------14~----|
---------------------------14----|-----------------------------|
---------------------------------|-----------------------------|
---------------------------------|-----------------------------|


         W       W                                                            
   E     Q.      Q     Q                                                      
-----------------------------|-------|-------|-------|-------|-------|-------|
-----------------------------|-------|-------|-------|-------|-------|-------|
---L--<>14------14----14\----|-------|-------|-------|-------|-------|-------|
-----------------------------|-------|-------|-------|-------|-------|-------|
-----------------------------|-------|-------|-------|-------|-------|-------|
-----------------------------|-------|-------|-------|-------|-------|-------|


-------|-------|-------|-------|-------|-------|-------|-------|-------|-------|
-------|-------|-------|-------|-------|-------|-------|-------|-------|-------|
-------|-------|-------|-------|-------|-------|-------|-------|-------|-------|
-------|-------|-------|-------|-------|-------|-------|-------|-------|-------|
-------|-------|-------|-------|-------|-------|-------|-------|-------|-------|
-------|-------|-------|-------|-------|-------|-------|-------|-------|-------|


-------|-------|-------|-------|-------|-------|-------|-------|-------|-------|
-------|-------|-------|-------|-------|-------|-------|-------|-------|-------|
-------|-------|-------|-------|-------|-------|-------|-------|-------|-------|
-------|-------|-------|-------|-------|-------|-------|-------|-------|-------|
-------|-------|-------|-------|-------|-------|-------|-------|-------|-------|
-------|-------|-------|-------|-------|-------|-------|-------|-------|-------|


                                                  H.            Q      
-------|-------|-------|-------|-------|-------|----------------------|
-------|-------|-------|-------|-------|-------|----------------------|
-------|-------|-------|-------|-------|-------|----------------------|
-------|-------|-------|-------|-------|-------|----------------------|
-------|-------|-------|-------|-------|-------|----------------------|
-------|-------|-------|-------|-------|-------|---------------12\----|


       |--3-|  |--3-| |--3-|  |--3-| |--3-|  |--3-|                           
  Q    S  S S  S S  S S  S S  S S  S S  S S  S S  S     Q.      H         E   
----------------------------------------------------|--10--------------------|
----------------------------------------------------|--10b------8~-----------|
----------------------------------------------------|------------------------|
-------2p-0-2p-0-2p-0-2p-0-2p-0-2p-0-2p-0-2p-0-2p-0-|------------------------|
----------------------------------------------------|------------------------|
--0-------------------------------------------------|------------------------|


  |--3-|  |--3-| |--3-|  |--3-| |--3-|  |--3-| |--3-|  |--3-|  
  S  S S  S S  S S  S S  S S  S S  S S  S S  S S  S S  S S  S  
--------------------------------------------------------------|
--------------------------------------------------------------|
--------------------------------------------------------------|
--2p-0-2p-0-2p-0-2p-0-2p-0-2p-0-2p-0-2p-0-5p-0-5p-0-5p-0-5p-0-|
--------------------------------------------------------------|
--------------------------------------------------------------|


   Q.      H          E       Q.        Q     Q     E      
--10----------------------|------------10----10-----------|
--10b------8~--------10b--|---Lpb------------------10pbr--|
--------------------------|-------------------------------|
--------------------------|-------------------------------|
--------------------------|-------------------------------|
--------------------------|-------------------------------|


  E   E   E    E  Q.      E      Q.       Q    E  E  E     W                  
-----------------------------|--------------------------|--------------------|
--8--10--10b--10--8~---------|--10b------10----8--------|--------------------|
-----------------------------|--------------------9--7--|--9~----------------|
-----------------------------|--------------------------|--------------------|
-----------------------------|--------------------------|--------------------|
-----------------------------|--------------------------|--------------------|


  Q     E    Q.       S   S   E     
-----------------------------------|
-------15---15-------15------15----|
-------14b--14b------14b-14b-14pb--|
-----------------------------------|
-----------------------------------|
-----------------------------------|


   E     S    S    S  S    S  S    S  S    E     S     S  E    
--------------------------------------------------------------|
--15----15----L---15--L---15--L---15-15---15----15------------|
--14pb--14pb-14pb----14pb----14pb----14pb-14pb--14pbr-12------|
---------------------------------------------------------14~--|
--------------------------------------------------------------|
--------------------------------------------------------------|


   Q      Q      S  S  S  S  S   E.      E    E    S  S  S  S  S   E.   E   E   
-------------------------------------|-----------------------------------------|
---------12--------------------------|--12---12--------------------------------|
---------12b-------------------------|--12b--12b-------------------------------|
--14~-----------14-12-------12h-14---|------------14-12----12-12h-14----L\-----|
----------------------14-12----------|------------------14---------------------|
-------------------------------------|-----------------------------------------|


  S S S S S S S S S S S S S S S S    S S S S S S S S S S S S S S S S  
--0-3-0-0-5-0-0-0-7-0-0-0-5-0-3-0-|--0-3-0-0-5-0-0-0-7-0-0-0-5-0-3-0-|
----------------------------------|----------------------------------|
----------------------------------|----------------------------------|
----------------------------------|----------------------------------|
----------------------------------|----------------------------------|
----------------------------------|----------------------------------|


  S S S S S S S S S S S S S S S S    S S S S S S S S S S S S S S E   
--0-3-0---0-----------------------|---------------------------------|
--------3---3-0---0---------------|---------------------------------|
----------------3---3-2-0-2-0-----|--2-0----------------------------|
------------------------------2-0-|------2-0---0--------------------|
----------------------------------|----------3---3-2-0---0-2-0------|
----------------------------------|--------------------3-------3-0--|


                                     PM PM PM PM PM PM PM PM  
   E   E    E    Q      Q.           E  E  E  E  E  E  E  E   
----------------------------------|--------------------------|
------12---12---12-----12---------|--------------------------|
------12b--12b--12b----12brb------|--------------------------|
--14------------------------------|--------------------------|
----------------------------------|--------------------------|
----------------------------------|--0--0--0--0--0--0--0--0--|


  PM PM PM PM PM PM PM PM    PM PM PM PM PM PM PM PM  
  E  E  E  E  E  E  E  E     E  E  E  E  E  E  E  E   
--------------------------|--------------------------|
--------------------------|--------------------------|
--------------------------|--------------------------|
--------------------------|--------------------------|
--------------------------|--------------------------|
--0--0--0--0--0--0--0--0--|--0--0--0--0--0--0--0--0--|


  PM PM PM PM PM PM PM PM    PM PM PM PM PM PM PM PM  
  E  E  E  E  E  E  E  E     E  E  E  E  E  E  E  E   
--------------------------|--------------------------|
--------------------------|--------------------------|
--------------------------|--------------------------|
--------------------------|--------------------------|
--------------------------|--------------------------|
--0--0--0--0--0--0--0--0--|--0--0--0--0--0--0--0--0--|


  PM PM PM PM PM PM PM PM    PM PM PM PM PM PM PM PM  
  E  E  E  E  E  E  E  E     E  E  E  E  E  E  E  E   
--------------------------|--------------------------|
--------------------------|--------------------------|
--------------------------|--------------------------|
--------------------------|--------------------------|
--------------------------|--------------------------|
--0--0--0--0--0--0--0--0--|--0--0--0--0--0--0--0--0--|


  PM PM PM PM PM PM PM PM    PM PM PM PM PM PM PM PM  
  E  E  E  E  E  E  E  E     E  E  E  E  E  E  E  E   
--------------------------|--------------------------|
--------------------------|--------------------------|
--------------------------|--------------------------|
--------------------------|--------------------------|
--------------------------|--------------------------|
--0--0--0--0--0--0--0--0--|--0--0--0--0--0--0--0--0--|


  PM PM PM PM PM PM PM PM    PM PM PM PM PM PM PM PM                          
  E  E  E  E  E  E  E  E     E  E  E  E  E  E  E  E                           
--------------------------|--------------------------|-----|-----|-----|-----|
--------------------------|--------------------------|-----|-----|-----|-----|
--------------------------|--------------------------|-----|-----|-----|-----|
--------------------------|--------------------------|-----|-----|-----|-----|
--------------------------|--------------------------|-----|-----|-----|-----|
--0--0--0--0--0--0--0--0--|--0--0--0--0--0--0--0--0--|-----|-----|-----|-----|


-----|-----|-----|-----|-----|-----|-------|-------|-------|-------|-------|
-----|-----|-----|-----|-----|-----|-------|-------|-------|-------|-------|
-----|-----|-----|-----|-----|-----|-------|-------|-------|-------|-------|
-----|-----|-----|-----|-----|-----|-------|-------|-------|-------|-------|
-----|-----|-----|-----|-----|-----|-------|-------|-------|-------|-------|
-----|-----|-----|-----|-----|-----|-------|-------|-------|-------|-------|


-------|-------|-------|-------|-------|-------|-------|-------|-------|-------|
-------|-------|-------|-------|-------|-------|-------|-------|-------|-------|
-------|-------|-------|-------|-------|-------|-------|-------|-------|-------|
-------|-------|-------|-------|-------|-------|-------|-------|-------|-------|
-------|-------|-------|-------|-------|-------|-------|-------|-------|-------|
-------|-------|-------|-------|-------|-------|-------|-------|-------|-------|


                                            feedback pitch E  
  W                    W                    W                 
--------------------|-------------------|--------------------|
--------------------|-------------------|--17----------------|
--9~----------------|--L----------------|---L----------------|
--------------------|-------------------|--------------------|
--------------------|-------------------|--------------------|
--------------------|-------------------|--------------------|


   W                    W                    W                                 
--------------------|--------------------|--------------------|-------|-------|
---L----------------|---L----------------|---L----------------|-------|-------|
---L----------------|---L----------------|---L----------------|-------|-------|
--------------------|--------------------|--------------------|-------|-------|
--------------------|--------------------|--------------------|-------|-------|
--------------------|--------------------|--------------------|-------|-------|


-------|-------|-------|-------|-------|-------|-------|-------|-------|-------|
-------|-------|-------|-------|-------|-------|-------|-------|-------|-------|
-------|-------|-------|-------|-------|-------|-------|-------|-------|-------|
-------|-------|-------|-------|-------|-------|-------|-------|-------|-------|
-------|-------|-------|-------|-------|-------|-------|-------|-------|-------|
-------|-------|-------|-------|-------|-------|-------|-------|-------|-------|


   E   E   Q     E    E   E   E      E   E   Q     E   Q    E   
----------19----17p--15----------|-----------------------------|
--17--17-----------------17--15--|--15--15--15----15--17-------|
---------------------------------|-----------------------------|
---------------------------------|-----------------------------|
---------------------------------|-----------------------------|
---------------------------------|-----------------------------|


   E   E   Q     E    E   E   E      E   E   Q     E   Q    E   
----------19----17p--15----------|-----------------------------|
--17--17-----------------17--15--|--15--15--15----15--17-------|
---------------------------------|-----------------------------|
---------------------------------|-----------------------------|
---------------------------------|-----------------------------|
---------------------------------|-----------------------------|


   E   E   Q     E    E   E   E      E   E   Q     E   Q    E   
----------19----17p--15----------|-----------------------------|
--17--17-----------------17--15--|--15--15--15----15--17-------|
---------------------------------|-----------------------------|
---------------------------------|-----------------------------|
---------------------------------|-----------------------------|
---------------------------------|-----------------------------|


   E   E   Q     E    E   E   E      E   E   Q     E   Q    E   
----------19----17p--15----------|-----------------------------|
--17--17-----------------17--15--|--15--15--15----15--17-------|
---------------------------------|-----------------------------|
---------------------------------|-----------------------------|
---------------------------------|-----------------------------|
---------------------------------|-----------------------------|


   E   E   Q     E    E   E   E      E   E   Q     E   Q    E   
----------19----17p--15----------|-----------------------------|
--17--17-----------------17--15--|--15--15--15----15--17-------|
---------------------------------|-----------------------------|
---------------------------------|-----------------------------|
---------------------------------|-----------------------------|
---------------------------------|-----------------------------|


   E   E   Q     E    E   E   E      E   E   Q     E   Q    E   
----------19----17p--15----------|-----------------------------|
--17--17-----------------17--15--|--15--15--15----15--17-------|
---------------------------------|-----------------------------|
---------------------------------|-----------------------------|
---------------------------------|-----------------------------|
---------------------------------|-----------------------------|


   E   E   Q     E    E   E   E      E   E   Q     E   Q    E    
----------19----17p--15----------|-----------------------------||
--17--17-----------------17--15--|--15--15--15----15--17-------||
---------------------------------|-----------------------------||
---------------------------------|-----------------------------||
---------------------------------|-----------------------------||
---------------------------------|-----------------------------||




Duration Legend
---------------
W - whole
H - half
Q - quarter
E - 8th
S - 16th
T - 32nd
X - 64th
. - note dotted
|-n-|  - n-tuplets


Tablature Legend
----------------
L - tied note
x - dead note
g - grace note
(n) - ghost note
> - accentuded note
NH - natural harmonic
AH - artificial harmonic
TH - tapped harmonic
SH - semi harmonic
PH - pitch harmonic
h - hammer on
p - pull off
b - bend
br - bendRelease
pb - preBend
pbr - preBendRelease
brb - bendReleaseBend
\n/ - tremolo bar dip
\n - tremolo bar dive
-/n - tremolo bar Release up
/n\ - tremolo bar inverted dip
/n - tremolo bar return
-\n - tremolo bar Release down
S - shift slide
s - legato slide
/ -  slide into from below or out of upwards
\ -  slide into from above or out of downwards
~ - vibrato
W - wide vibrato
tr - trill
TP - tremolo picking
T - tapping
S - slap
P - pop
< - fade in
^ - brush up
v - brush down
Добавлено: 29.09.2013
Другие материалы по этой песне:

Страница создана 18.04.2012
http://primanota.ru/kix/girl-money-chords.htm
Привет, Гость.
Предлагаем пройти революционный курс по гитаре.
Подарок от PrimaNota.Ru, забирай!