PrimaNota.ru - самый крупный в мире бесплатный архив песенных текстов, аккордов, табулатур и нот


Kix - Tear Down The Walls - текст песни, таба, видео

Регистрация Запомнить меня
Войти через:  Facebook Google Twitter Vk Yandex Mail.ru

Kix - Tear Down The Walls - текст песни, таба, видео

Печатать
Просмотров: 111
Уроки эстрадного вокала в Санкт-Петербурге
-----------------------------------------------------------------------------
                                  
                   Tear Down the Walls - Kix (GUITAR)
            
-----------------------------------------------------------------------------
Tabbed by: Scotto10

Tuning: standard tuning

=============================================================================
             
Guitar 1



     Q.     Q    E  E  E     Q.     Q    E  Q       W                 
E||--2------2----3--5-----|----------------------|--3----------------|
B||--------------------3--|--2------2----3--5----|--3----------------|
G||-----------------------|----------------------|--0----------------|
D||--0------0----0--0-----|----------------------|--0----------------|
A||-----------------------|--4------4----4--4----|-------------------|
E||-----------------------|--5------5----5--5----|--3----------------|


  E  E  E  E  H           E  E  E  E  H           E  E  E  E  H         
-----------0--L--------|-----------2--L--------|-----------0--L--------|
--------3--------------|--------0--------------|--------3--------------|
-----2-----------------|-----2-----------------|-----2-----------------|
--0--------------------|--0--------------------|--0--------------------|
-----------------------|-----------------------|-----------------------|
-----------------------|-----------------------|-----------------------|


                                                  ^      ^      ^     
  E  E  E  E  H           E  E  E  E  H           Q.     Q.     Q     
-----------2--L--------|-----------------------|--0------0------0----|
--------1--------------|-----------------------|--0------2------3----|
-----2-----------------|-----------0--L--------|--0------0------0----|
--0--------------------|--------0--------------|--2------2------2----|
-----------------------|-----2-----------------|---------------------|
-----------------------|--0--------------------|---------------------|


  E  E  E  E  H           E  E  E  E  H           E  E  E  E  H         
-----------0--L--------|-----------2--L--------|-----------0--L--------|
--------3--------------|--------0--------------|--------3--------------|
-----2-----------------|-----2-----------------|-----2-----------------|
--0--------------------|--0--------------------|--0--------------------|
-----------------------|-----------------------|-----------------------|
-----------------------|-----------------------|-----------------------|


                                                  ^      ^      ^     
  E  E  E  E  H           E  E  E  E  H           Q.     Q.     Q     
-----------2--L--------|-----------------------|--0------0------0----|
--------1--------------|-----------------------|--0------2------3----|
-----2-----------------|-----------0--L--------|--0------0------0----|
--0--------------------|--------0--------------|--2------2------2----|
-----------------------|-----2-----------------|---------------------|
-----------------------|--0--------------------|---------------------|


  W                   H.           E  E     E  E  E  H        E   
--3----------------|--3------------3-----|-----------0-----------|
--3----------------|--3------------3-----|--------3-----------3--|
--0----------------|--3------------3--0--|-----2-----------------|
--0----------------|--0------------0--0--|--0--------------------|
-------------------|---------------------|-----------------------|
-------------------|---------------------|-----------------------|


  E  E  E  E  H           W                   H.           E  E   
-----------2--L--------|--3----------------|--3------------3-----|
--------1--------------|--3----------------|--3------------3-----|
-----2-----------------|--0----------------|--3------------3--0--|
--0--------------------|--0----------------|--0------------0--0--|
-----------------------|-------------------|---------------------|
-----------------------|-------------------|---------------------|


  E  E  E  H        E     E  E  E  E  H           E  E  E  E  H         
-----------0-----------|-----------2--L--------|-----------------------|
--------3-----------3--|--------1--------------|-----------3--L--------|
-----2-----------------|-----2-----------------|--------4--------------|
--0--------------------|--0--------------------|-----4-----------------|
-----------------------|-----------------------|--2--------------------|
-----------------------|-----------------------|-----------------------|


                                                  ^      ^      ^     
  E  E  E  E  H           E  E  E  E  H           Q.     Q.     Q     
-----------2--L--------|-----------------------|--0------0------0----|
-----------2--L--------|-----------------------|--0------2------3----|
--------2--------------|-----------0--L--------|--0------0------0----|
-----4-----------------|--------0--------------|--2------2------2----|
-----------------------|-----2-----------------|---------------------|
--2--------------------|--0--------------------|---------------------|


  E  E  E  Q    Q.        E  E  E  Q    Q    E     E  E  E  Q    Q.      
-----------0-----------|-----------0------------|-----------0-----------|
--------3-------3------|----------------3-------|--------3-------3------|
-----2-----------------|--------0------------0--|-----2-----------------|
--0--------------------|-----0------------------|--0--------------------|
-----------------------|------------------------|-----------------------|
-----------------------|--3---------------------|-----------------------|


  E  E  E  Q    Q    E     E  E  E  Q    E  Q       E  E  E  Q    E  Q     
-----------0------------|------------------------|-----------0------------|
----------------3-------|-----------3----2-------|-----------3------------|
--------0------------0--|--------2----------2----|--------0-------0-------|
-----0------------------|-----2------------------|-----0-------------0----|
------------------------|--0---------------------|------------------------|
--3---------------------|------------------------|--3---------------------|


  E  E  E  Q    E  Q       E  E  E  E  H           E  E  E  E  H         
------------------------|-----------------------|-----------0--L--------|
-----------3----2-------|-----------3--L--------|--------3--------------|
--------2----------2----|--------0--------------|-----2-----------------|
-----2------------------|-----2-----------------|--0--------------------|
--0---------------------|--3--------------------|-----------------------|
------------------------|-----------------------|-----------------------|


  E  E  E  E  H           E  E  E  E  H           E  E  E  E  H         
-----------2--L--------|-----------0--L--------|-----------2--L--------|
--------0--------------|--------3--------------|--------0--------------|
-----2-----------------|-----2-----------------|-----2-----------------|
--0--------------------|--0--------------------|--0--------------------|
-----------------------|-----------------------|-----------------------|
-----------------------|-----------------------|-----------------------|


  E  E  E  E  H           E  E  E  E  H           E  E  E  E  H         
-----------0--L--------|-----------2--L--------|-----------------------|
--------3--------------|--------1--------------|-----------------------|
-----2-----------------|-----2-----------------|-----------0--L--------|
--0--------------------|--0--------------------|--------0--------------|
-----------------------|-----------------------|-----2-----------------|
-----------------------|-----------------------|--0--------------------|


  ^      ^      ^                                                     
  Q.     Q.     Q       E  E  E  E  H           E  E  E  E  H         
--0------0------0----|-----------0--L--------|-----------2--L--------|
--0------2------3----|--------3--------------|--------0--------------|
--0------0------0----|-----2-----------------|-----2-----------------|
--2------2------2----|--0--------------------|--0--------------------|
---------------------|-----------------------|-----------------------|
---------------------|-----------------------|-----------------------|


  E  E  E  E  H           E  E  E  E  H           E  E  E  E  H         
-----------0--L--------|-----------2--L--------|-----------------------|
--------3--------------|--------1--------------|-----------------------|
-----2-----------------|-----2-----------------|-----------0--L--------|
--0--------------------|--0--------------------|--------0--------------|
-----------------------|-----------------------|-----2-----------------|
-----------------------|-----------------------|--0--------------------|


  ^      ^      ^                                               
  Q.     Q.     Q       W                   H.           E  E   
--0------0------0----|--3----------------|--3------------3-----|
--0------2------3----|--3----------------|--3------------3-----|
--0------0------0----|--0----------------|--3------------3--0--|
--2------2------2----|--0----------------|--0------------0--0--|
---------------------|-------------------|---------------------|
---------------------|-------------------|---------------------|


  E  E  E  H        E     E  E  E  E  H           W                 
-----------0-----------|-----------2--L--------|--3----------------|
--------3-----------3--|--------1--------------|--3----------------|
-----2-----------------|-----2-----------------|--0----------------|
--0--------------------|--0--------------------|--0----------------|
-----------------------|-----------------------|-------------------|
-----------------------|-----------------------|-------------------|


                                                ^      ^      ^     
  H.           E  E     E  E  E  Q    Q.        Q.     Q.     Q     
--3------------3-----|-----------0-----------|--0------0------0----|
--3------------3-----|--------3-------3------|--0------2------3----|
--3------------3--0--|-----2-----------------|--0------0------0----|
--0------------0--0--|--0--------------------|--2------2------2----|
---------------------|-----------------------|---------------------|
---------------------|-----------------------|---------------------|


  E  E  E  Q    Q.        E  E  E  Q    Q    E     E  E  E  Q    Q.      
-----------0-----------|-----------0------------|-----------0-----------|
--------3-------3------|----------------3-------|--------3-------3------|
-----2-----------------|--------0------------0--|-----2-----------------|
--0--------------------|-----0------------------|--0--------------------|
-----------------------|------------------------|-----------------------|
-----------------------|--3---------------------|-----------------------|


  E  E  E  Q    Q    E     E  E  E  Q    E  Q       E  E  E  Q    E  Q     
-----------0------------|------------------------|-----------0------------|
----------------3-------|-----------3----2-------|-----------3------------|
--------0------------0--|--------2----------2----|--------0-------0-------|
-----0------------------|-----2------------------|-----0-------------0----|
------------------------|--0---------------------|------------------------|
--3---------------------|------------------------|--3---------------------|


                                                   PM PM PM PM PM PM PM PM  
  E  E  E  Q    E  Q       E  E  E  E  H           E  E  E  E  E  E  E  E   
------------------------|-----------------------|--------------------------|
-----------3----2-------|-----------3--L--------|--------------------------|
--------2----------2----|--------0--------------|--------------------------|
-----2------------------|-----2-----------------|--------------------------|
--0---------------------|--3--------------------|--------------------------|
------------------------|-----------------------|--3--3--3--3--3--3--3--3--|


  PM PM PM PM PM PM PM PM                                      
  E  E  E  E  E  E  E  E                                       
--------------------------|-----|-----|-----|-----|-----|-----|
--------------------------|-----|-----|-----|-----|-----|-----|
--------------------------|-----|-----|-----|-----|-----|-----|
--------------------------|-----|-----|-----|-----|-----|-----|
--------------------------|-----|-----|-----|-----|-----|-----|
--3--3--3--3--3--3--3--3--|-----|-----|-----|-----|-----|-----|


  E  E  E  E  H           E  E  E  E  H           E  E  E  E  H         
-----------------------|-----------2--L--------|-----------------------|
-----------3--L--------|-----------2--L--------|-----------------------|
--------4--------------|--------2--------------|-----------0--L--------|
-----4-----------------|-----4-----------------|--------0--------------|
--2--------------------|-----------------------|-----2-----------------|
-----------------------|--2--------------------|--0--------------------|


  ^      ^      ^                                                    
  Q.     Q.     Q       Q.     Q    E  E  E     Q.     Q    E  Q     
--0------0------0----|--2------2----3--5-----|----------------------|
--0------2------3----|--------------------3--|--2------2----3--5----|
--0------0------0----|-----------------------|----------------------|
--2------2------2----|--0------0----0--0-----|----------------------|
---------------------|-----------------------|--4------4----4--4----|
---------------------|-----------------------|--5------5----5--5----|


  W                   E  Q    E   Q     S E.     E  E  E  Q    Q.      
--3----------------|--------------------------|-----------0-----------|
--3----------------|--------------------------|--------3-------3------|
--0----------------|--------------------------|-----2-----------------|
--0----------------|--------------------------|--0--------------------|
-------------------|----------------------0---|-----------------------|
--3----------------|--5--7----9--10----12-----|-----------------------|


  E  E  E  Q    Q    E     E  E  E  Q    Q.        E  E  E  Q    Q    E   
-----------0------------|-----------0-----------|-----------0------------|
----------------3-------|--------3-------3------|----------------3-------|
--------0------------0--|-----2-----------------|--------0------------0--|
-----0------------------|--0--------------------|-----0------------------|
------------------------|-----------------------|------------------------|
--3---------------------|-----------------------|--3---------------------|


  E  E  E  Q    E  Q       E  E  E  Q    E  Q       E  E  E  Q    E  Q     
------------------------|-----------0------------|------------------------|
-----------3----2-------|-----------3------------|-----------3----2-------|
--------2----------2----|--------0-------0-------|--------2----------2----|
-----2------------------|-----0-------------0----|-----2------------------|
--0---------------------|------------------------|--0---------------------|
------------------------|--3---------------------|------------------------|


  E  E  E  E  H           E  E  E  Q    Q.        E  E  E  Q    Q    E   
-----------------------|-----------0-----------|-----------0------------|
-----------3--L--------|--------3-------3------|----------------3-------|
--------0--------------|-----2-----------------|--------0------------0--|
-----2-----------------|--0--------------------|-----0------------------|
--3--------------------|-----------------------|------------------------|
-----------------------|-----------------------|--3---------------------|


  E  E  E  Q    Q.        E  E  E  Q    Q    E     E  E  E  Q    Q.      
-----------0-----------|-----------0------------|-----------0-----------|
--------3-------3------|----------------3-------|--------3-------3------|
-----2-----------------|--------0------------0--|-----2-----------------|
--0--------------------|-----0------------------|--0--------------------|
-----------------------|------------------------|-----------------------|
-----------------------|--3---------------------|-----------------------|


  E  E  E  Q    Q    E     E  E  E  Q    Q.        E  E  E  Q    Q    E   
-----------0------------|-----------0-----------|-----------0------------|
----------------3-------|--------3-------3------|----------------3-------|
--------0------------0--|-----2-----------------|--------0------------0--|
-----0------------------|--0--------------------|-----0------------------|
------------------------|-----------------------|------------------------|
--3---------------------|-----------------------|--3---------------------|


  Q.     Q    E  E  E     Q.     Q    E  Q       W                 
--2------2----3--5-----|----------------------|--3----------------|
--------------------3--|--2------2----3--5----|--3----------------|
-----------------------|----------------------|--0----------------|
--0------0----0--0-----|----------------------|--0----------------|
-----------------------|--4------4----4--4----|-------------------|
-----------------------|--5------5----5--5----|--3----------------|


  W                   W                  
--L----------------|--L----------------||
--L----------------|--L----------------||
--L----------------|--L----------------||
--L----------------|--L----------------||
-------------------|-------------------||
--L----------------|--L----------------||



=============================================================================

Guitar 2



             H.           E  S S    W                                         
E||-------|------------------3-3-|--3----------------|-------|-------|-------|
B||-------|------------------3-3-|--3----------------|-------|-------|-------|
G||-------|------------------0-0-|--0----------------|-------|-------|-------|
D||-------|------------------0-0-|--0----------------|-------|-------|-------|
A||-------|----------------------|-------------------|-------|-------|-------|
E||-------|------------------3-3-|--3----------------|-------|-------|-------|


-------|-------|-------|-------|-------|-------|-------|-------|-------|
-------|-------|-------|-------|-------|-------|-------|-------|-------|
-------|-------|-------|-------|-------|-------|-------|-------|-------|
-------|-------|-------|-------|-------|-------|-------|-------|-------|
-------|-------|-------|-------|-------|-------|-------|-------|-------|
-------|-------|-------|-------|-------|-------|-------|-------|-------|


  PM PM PM PM PM PM PM PM    PM PM PM PM PM PM PM PM                      
  E  E  E  E  E  E  E  E     E  E  E  E  E  E  E  E     W                 
--------------------------|--------------------------|-------------------|
--------------------------|--------------------------|-------------------|
--------------------------|--------------------------|-------------------|
--------------------------|--------------------------|--0----------------|
--------------------------|--------------------------|-------------------|
--3--3--3--3--3--3--3--3--|--3--3--3--3--3--3--3--3--|-------------------|


          PM PM PM PM PM PM PM PM    PM PM PM PM PM PM PM PM  
          E  E  E  E  E  E  E  E     E  E  E  E  E  E  E  E   
-------|--------------------------|--------------------------|
-------|--------------------------|--------------------------|
-------|--------------------------|--------------------------|
-------|--------------------------|--------------------------|
-------|--------------------------|--------------------------|
-------|--3--3--3--3--3--3--3--3--|--3--3--3--3--3--3--3--3--|


  W                                                                         
-------------------|-------|-------|-------|-------|-------|-------|-------|
-------------------|-------|-------|-------|-------|-------|-------|-------|
-------------------|-------|-------|-------|-------|-------|-------|-------|
--0----------------|-------|-------|-------|-------|-------|-------|-------|
-------------------|-------|-------|-------|-------|-------|-------|-------|
-------------------|-------|-------|-------|-------|-------|-------|-------|


-------|-------|-------|-------|-------|-------|-------|-------|-------|-------|
-------|-------|-------|-------|-------|-------|-------|-------|-------|-------|
-------|-------|-------|-------|-------|-------|-------|-------|-------|-------|
-------|-------|-------|-------|-------|-------|-------|-------|-------|-------|
-------|-------|-------|-------|-------|-------|-------|-------|-------|-------|
-------|-------|-------|-------|-------|-------|-------|-------|-------|-------|


-------|-------|-------|-------|-------|-------|-------|-------|-------|-------|
-------|-------|-------|-------|-------|-------|-------|-------|-------|-------|
-------|-------|-------|-------|-------|-------|-------|-------|-------|-------|
-------|-------|-------|-------|-------|-------|-------|-------|-------|-------|
-------|-------|-------|-------|-------|-------|-------|-------|-------|-------|
-------|-------|-------|-------|-------|-------|-------|-------|-------|-------|


-------|-------|-------|-------|-------|-------|-------|-------|-------|-------|
-------|-------|-------|-------|-------|-------|-------|-------|-------|-------|
-------|-------|-------|-------|-------|-------|-------|-------|-------|-------|
-------|-------|-------|-------|-------|-------|-------|-------|-------|-------|
-------|-------|-------|-------|-------|-------|-------|-------|-------|-------|
-------|-------|-------|-------|-------|-------|-------|-------|-------|-------|


-------|-------|-------|-------|-------|-------|
-------|-------|-------|-------|-------|-------|
-------|-------|-------|-------|-------|-------|
-------|-------|-------|-------|-------|-------|
-------|-------|-------|-------|-------|-------|
-------|-------|-------|-------|-------|-------|


  E  E  E   S  S  S   S  E   Q         E   Q      S  S  S  S E  E  E   
-----------------------------------|----------------------------------|
-----------------------------------|-------------10-10-10s-8-8--------|
-----------14-14-14s-12-12--12~----|---L---L\-----9--9--9s-7-7--7-----|
-----------14-14-14s-12-12--12~----|---L---L\-------------------0--0--|
-----------------------------------|----------------------------------|
-----------------------------------|----------------------------------|


  Q.      S  S  S   S  E   E  E   
---------12-12-12s-10-10--10--8--|
---------12-12-12s-10-10--10--8--|
---------------------------------|
--L------------------------------|
---------------------------------|
---------------------------------|


                              |---3--|             
   S  S   S  S S  S S   S E   S   S  S  S S S  S   
--10-12s-10-10---10-8s-10-7-----------------------|
--10-12s-10-10---10-8s-10-7~--7h-10p-7------------|
---------------------------------------10-9-7-----|
----------------------------------------------10s-|
--------------------------------------------------|
--------------------------------------------------|


   Q     E   S  S  S   S  E   Q     
------------17-17-17s-15-15--15----|
------------17-17-17s-15-15--------|
------------14-14-14s-12-12--------|
--12~------------------------------|
-----------------------------------|
-----------------------------------|


   E   S  S  S   S  S  S  S   S  S  S   S  S  S   S  
---L--17-17-17s-15-15-15-17p-15----19p-15----17p-15-|
------17-17-17s-15--------------15--------15--------|
----------------------------------------------------|
----------------------------------------------------|
----------------------------------------------------|
----------------------------------------------------|


                 |--3--|              
  E  S  S S S E  S  S  S E  S  S S S  
-------------------------------------|
-------------------------------------|
----------7---7--7h-9p-7---------7---|
-----7h-9---9------------9--7h-9---9-|
-------------------------------------|
-------------------------------------|


  E  S  S S S   S  S  S   S  S  S  S   S  S  T   T     W                  
-----------------------------------------12--------|---------------------|
------------8-----10--------12----12s-13----12h-13-|--15~----------------|
--7--7s-9-9---/11----11s-12----14------------------|---------------------|
---------------------------------------------------|---------------------|
---------------------------------------------------|---------------------|
---------------------------------------------------|---------------------|


                                  H.           E  S S    W                 
-------|-------|-------|-------|------------------3-3-|--3----------------|
-------|-------|-------|-------|------------------3-3-|--3----------------|
-------|-------|-------|-------|------------------0-0-|--0----------------|
-------|-------|-------|-------|------------------0-0-|--0----------------|
-------|-------|-------|-------|----------------------|-------------------|
-------|-------|-------|-------|------------------3-3-|--3----------------|


  W                   W                   W                   W                 
--L----------------|-------------------|-------------------|-------------------|
--L----------------|--3----------------|--3----------------|--3----------------|
--L----------------|--2----------------|--0----------------|--2----------------|
--L----------------|--0----------------|--0----------------|--0----------------|
-------------------|-------------------|-------------------|-------------------|
--L----------------|-------------------|--3----------------|-------------------|


  W                   W                   W                   W                 
-------------------|-------------------|-------------------|-------------------|
--3----------------|-------------------|--3----------------|-------------------|
--0----------------|-------------------|--0----------------|-------------------|
--0----------------|--2----------------|--0----------------|--2----------------|
-------------------|--0----------------|-------------------|--0----------------|
--3----------------|-------------------|--3----------------|-------------------|


  W                   W                   W                   W                 
-------------------|-------------------|-------------------|-------------------|
--3----------------|--3----------------|--3----------------|--3----------------|
--0----------------|--2----------------|--0----------------|--2----------------|
--2----------------|--0----------------|--0----------------|--0----------------|
--3----------------|-------------------|-------------------|-------------------|
-------------------|-------------------|--3----------------|-------------------|


  H        Q    S E.     W                   W                 
----------------------|-------------------|-------------------|
--3--------L----3-----|--3----------------|--3----------------|
--0--------L----0-----|--2----------------|--0----------------|
--0--------L----0-2---|--0----------------|--0----------------|
------------------0---|-------------------|-------------------|
--3--------L----3-----|-------------------|--3----------------|


  W                   W                           H.           E  S S  
-------------------|-------------------|-------|------------------3-3-|
--3----------------|--3----------------|-------|------------------3-3-|
--2----------------|--0----------------|-------|------------------0-0-|
--0----------------|--0----------------|-------|------------------0-0-|
-------------------|-------------------|-------|----------------------|
-------------------|--3----------------|-------|------------------3-3-|


  W                   W                   W                  
--3----------------|--L----------------|--L----------------||
--3----------------|--L----------------|--L----------------||
--0----------------|--L----------------|--L----------------||
--0----------------|--L----------------|--L----------------||
-------------------|-------------------|-------------------||
--3----------------|--L----------------|--L----------------||




Duration Legend
---------------
W - whole
H - half
Q - quarter
E - 8th
S - 16th
T - 32nd
X - 64th
. - note dotted
|-n-|  - n-tuplets


Tablature Legend
----------------
L - tied note
x - dead note
g - grace note
(n) - ghost note
> - accentuded note
NH - natural harmonic
AH - artificial harmonic
TH - tapped harmonic
SH - semi harmonic
PH - pitch harmonic
h - hammer on
p - pull off
b - bend
br - bendRelease
pb - preBend
pbr - preBendRelease
brb - bendReleaseBend
\n/ - tremolo bar dip
\n - tremolo bar dive
-/n - tremolo bar Release up
/n\ - tremolo bar inverted dip
/n - tremolo bar return
-\n - tremolo bar Release down
S - shift slide
s - legato slide
/ -  slide into from below or out of upwards
\ -  slide into from above or out of downwards
~ - vibrato
W - wide vibrato
tr - trill
TP - tremolo picking
T - tapping
S - slap
P - pop
< - fade in
^ - brush up
v - brush down

Добавлено: 30.07.2013
Другие материалы по этой песне:

Страница создана 29.05.2012
http://primanota.ru/kix/tear-down-the-walls-chords.htm
Привет, Гость.
Предлагаем пройти революционный курс по гитаре.
Подарок от PrimaNota.Ru, забирай!