PrimaNota.ru - самый крупный в мире бесплатный архив песенных текстов, аккордов, табулатур и нот


Kix - Cold Chills - текст песни, таба, видео

Регистрация Запомнить меня
Войти через:  Facebook Google Twitter Vk Yandex Mail.ru

Kix - Cold Chills - текст песни, таба, видео

Печатать
Просмотров: 116
-----------------------------------------------------------------------------
                                  
                    Cold chills - Kix (GUITAR)
            
-----------------------------------------------------------------------------
Tabbed by: Scotto10

Tuning: standard tuning

=============================================================================

Guitar 1



     W                   W                   W                 
E||-------------------|-------------------|-------------------|
B||--5----------------|--L----------------|-------------------|
G||--4----------------|--L----------------|--5----------------|
D||--2----------------|--L----------------|--5----------------|
A||-------------------|-------------------|--3----------------|
E||--0----------------|--L----------------|-------------------|


  W                   W                   W                 
-------------------|-------------------|-------------------|
-------------------|-------------------|-------------------|
--L----------------|--2----------------|--L----------------|
--L----------------|--2----------------|--L----------------|
--L----------------|--0----------------|--L----------------|
-------------------|-------------------|-------------------|


     PM PM PM PM PM PM PM    PM PM                             NH              
  E  E  E  E  E  E  E  E     E  E  E  E  E  E  E  E     Q      E  E  H         
--------------------------|--------------------------|------------------------|
--------------------------|--------------------------|---------------8--------|
--4--4--4--4--4--4--4--4--|--4--4--4--4--4--4--4--4--|-------<>5-----7--------|
--4--4--4--4--4--4--4--4--|--4--4--4--4--4--4--4--4--|-------<>5--------------|
--2--2--2--2--2--2--2--2--|--2--2--2--2--2--2--2--2--|------------------------|
--------------------------|--------------------------|------------------------|


  W                   E  E  E  E   E  E  E   E     W                 
-------------------|--L--0--0--0---0-----0---0--|--L----------------|
--L----------------|--L--5--7--8--10-----8p--7--|--L----------------|
--L----------------|-----4-------------------8--|--L----------------|
-------------------|----------------------------|-------------------|
-------------------|----------------------------|-------------------|
-------------------|----------------------------|-------------------|


          NH                                                               
  E  E    E  E  H           W                   E  E  E  E   E  E  E   E   
--L----------------------|-------------------|--L--0--0--0---0-----0---0--|
--L-------------8--------|--L----------------|--L--5--7--8--10-----8p--7--|
--L-----<>5-----7--------|--L----------------|--L--4-------------------8--|
--------<>5--------------|-------------------|----------------------------|
-------------------------|-------------------|----------------------------|
-------------------------|-------------------|----------------------------|


  W                   W                   W                   W                 
--L----------------|-------------------|-------------------|-------------------|
--L----------------|--0----------------|--L----------------|--1----------------|
--L----------------|--0----------------|--L----------------|--0----------------|
-------------------|--2----------------|--L----------------|--2----------------|
-------------------|-------------------|-------------------|--3----------------|
-------------------|-------------------|-------------------|-------------------|


  W                   W                   W                   W                 
-------------------|-------------------|-------------------|-------------------|
--L----------------|--0----------------|--L----------------|--1----------------|
--L----------------|--0----------------|--L----------------|--0----------------|
--L----------------|--2----------------|--L----------------|--2----------------|
--L----------------|-------------------|-------------------|--3----------------|
-------------------|-------------------|-------------------|-------------------|


  W                   W                   W                   W                 
-------------------|-------------------|-------------------|-------------------|
--L----------------|-------------------|-------------------|--0----------------|
--L----------------|--2----------------|--L----------------|--0----------------|
--L----------------|--2----------------|--L----------------|--2----------------|
--L----------------|--0----------------|--L----------------|-------------------|
-------------------|-------------------|-------------------|-------------------|


  W                   W                   W                 
-------------------|-------------------|-------------------|
--L----------------|--3----------------|--L----------------|
--L----------------|--2----------------|--L----------------|
--L----------------|--0----------------|--L----------------|
-------------------|-------------------|-------------------|
-------------------|-------------------|-------------------|


     PM PM PM PM PM PM PM    PM PM                                           
  E  E  E  E  E  E  E  E     E  E  E  E  E  E  E  E     H        Q    E  E   
--------------------------|--------------------------|----------------------|
--------------------------|--------------------------|----------------------|
--4--4--4--4--4--4--4--4--|--4--4--4--4--4--4--4--4--|----------------------|
--4--4--4--4--4--4--4--4--|--4--4--4--4--4--4--4--4--|--2--------L----------|
--2--2--2--2--2--2--2--2--|--2--2--2--2--2--2--2--2--|--2--------L-------5--|
--------------------------|--------------------------|--0--------L-------3--|


  E  E  H.              W                   E  E  E  Q    E  E  E   
---------------------|-------------------|-------------------------|
---------------------|-------------------|--3--------3-------------|
-----2--2------------|--5----------------|--2--2--2--2----2--2-----|
-----2--2------------|--5----------------|--0--2--2--0----2--2--0--|
-----0--0------------|--3----------------|-----0--0-------0--0-----|
---------------------|-------------------|----------------------3--|


  H        Q    E  E     E  E  H.              W                 
----------------------|---------------------|-------------------|
----------------------|---------------------|-------------------|
----------------------|-----2--2------------|--5----------------|
--2--------L----------|-----2--2------------|--5----------------|
--2--------L-------5--|-----0--0------------|--3----------------|
--0--------L-------3--|---------------------|-------------------|


                            PM PM PM PM PM PM PM PM    PM PM PM PM PM PM PM PM  
  E  E  E  Q    E  E  E     E  E  E  E  E  E  E  E     E  E  E  E  E  E  E  E   
-------------------------|--------------------------|--------------------------|
--3--------3-------------|--------------------------|--------------------------|
--2--2--2--2----2--2-----|--8--8--8--8--8--8--8--8--|--9--9--9--9--9--9--9--9--|
--0--2--2--0----2--2--2--|--8--8--8--8--8--8--8--8--|--9--9--9--9--9--9--9--9--|
-----0--0-------0--0--0--|--6--6--6--6--6--6--6--6--|--7--7--7--7--7--7--7--7--|
-------------------------|--------------------------|--------------------------|


   PM  PM  PM  PM  PM  PM  PM  PM    PM PM PM PM PM PM PM PM  
   E   E   E   E   E   E   E   E     E  E  E  E  E  E  E  E   
----------------------------------|--------------------------|
----------------------------------|--------------------------|
----------------------------------|--------------------------|
----------------------------------|--------------------------|
--10--10--10--10--10--10--10--10--|--9--9--9--9--9--9--9--9--|
---8---8---8---8---8---8---8---8--|--7--7--7--7--7--7--7--7--|


  W                   W                   E  E  E  Q    E  Q     
-------------------|-------------------|------------------------|
--0----------------|-------------------|--3--------3------------|
-------------------|-------------------|--2--2--2--2----2--2----|
--2----------------|-------------------|--0--2--2--0----2--2----|
--2----------------|--5----------------|-----0--0-------0--0----|
--0----------------|--3----------------|------------------------|


  E  E  H.                          E  E  E  E   E  E  E   E   
---------------------|-----|-----|-----0--0--0---0-----0---0--|
---------------------|-----|-----|-----5--7--8--10-----8p--7--|
--4------------------|-----|-----|-----4-------------------8--|
--4------------------|-----|-----|----------------------------|
--2------------------|-----|-----|----------------------------|
---------------------|-----|-----|----------------------------|


                              NH                                  
  W                   E  E    E  E  H           W                 
--L----------------|-------------------------|-------------------|
--L----------------|--L-------------8--------|--L----------------|
--L----------------|--L-----<>5-----7--------|--L----------------|
-------------------|--------<>5--------------|-------------------|
-------------------|-------------------------|-------------------|
-------------------|-------------------------|-------------------|


  E  E  E  E   E  E  E   E     W                   W                 
-----0--0--0---0-----0---0--|--L----------------|-------------------|
--L--5--7--8--10-----8p--7--|--L----------------|--0----------------|
--L--4-------------------8--|--L----------------|--0----------------|
----------------------------|-------------------|--2----------------|
----------------------------|-------------------|-------------------|
----------------------------|-------------------|-------------------|


  W                   W                   W                   W                 
-------------------|-------------------|-------------------|-------------------|
--L----------------|--1----------------|--L----------------|--0----------------|
--L----------------|--0----------------|--L----------------|--0----------------|
--L----------------|--2----------------|--L----------------|--2----------------|
-------------------|--3----------------|--L----------------|-------------------|
-------------------|-------------------|-------------------|-------------------|


  W                   W                   W                   W                 
-------------------|-------------------|-------------------|-------------------|
--L----------------|--1----------------|--L----------------|-------------------|
--L----------------|--0----------------|--L----------------|--2----------------|
--L----------------|--2----------------|--L----------------|--2----------------|
-------------------|--3----------------|--L----------------|--0----------------|
-------------------|-------------------|-------------------|-------------------|


  W                   W                   W                   W                 
-------------------|-------------------|-------------------|-------------------|
-------------------|--0----------------|--L----------------|--3----------------|
--L----------------|--0----------------|--L----------------|--2----------------|
--L----------------|--2----------------|--L----------------|--0----------------|
--L----------------|-------------------|-------------------|-------------------|
-------------------|-------------------|-------------------|-------------------|


                         PM PM PM PM PM PM PM    PM PM                    
  W                   E  E  E  E  E  E  E  E     E  E  E  E  E  E  E  E   
-------------------|--------------------------|--------------------------|
--L----------------|--------------------------|--------------------------|
--L----------------|--4--4--4--4--4--4--4--4--|--4--4--4--4--4--4--4--4--|
--L----------------|--4--4--4--4--4--4--4--4--|--4--4--4--4--4--4--4--4--|
-------------------|--2--2--2--2--2--2--2--2--|--2--2--2--2--2--2--2--2--|
-------------------|--------------------------|--------------------------|


  H        Q    E  E     E  E  H.              W                 
----------------------|---------------------|-------------------|
----------------------|---------------------|-------------------|
----------------------|-----2--2------------|--5----------------|
--2--------L----------|-----2--2------------|--5----------------|
--2--------L-------5--|-----0--0------------|--3----------------|
--0--------L-------3--|---------------------|-------------------|


  E  E  E  Q    E  E  E     H        Q    E  E     E  E  H.            
-------------------------|----------------------|---------------------|
--3--------3-------------|----------------------|---------------------|
--2--2--2--2----2--2-----|----------------------|-----2--2------------|
--0--2--2--0----2--2--0--|--2--------L----------|-----2--2------------|
-----0--0-------0--0-----|--2--------L-------5--|-----0--0------------|
----------------------3--|--0--------L-------3--|---------------------|


                                                PM PM PM PM PM PM PM PM  
  W                   E  E  E  Q    E  E  E     E  E  E  E  E  E  E  E   
-------------------|-------------------------|--------------------------|
-------------------|--3--------3-------------|--------------------------|
--5----------------|--2--2--2--2----2--2-----|--8--8--8--8--8--8--8--8--|
--5----------------|--0--2--2--0----2--2--2--|--8--8--8--8--8--8--8--8--|
--3----------------|-----0--0-------0--0--0--|--6--6--6--6--6--6--6--6--|
-------------------|-------------------------|--------------------------|


  PM PM PM PM PM PM PM PM     PM  PM  PM  PM  PM  PM  PM  PM  
  E  E  E  E  E  E  E  E      E   E   E   E   E   E   E   E   
--------------------------|----------------------------------|
--------------------------|----------------------------------|
--9--9--9--9--9--9--9--9--|----------------------------------|
--9--9--9--9--9--9--9--9--|----------------------------------|
--7--7--7--7--7--7--7--7--|--10--10--10--10--10--10--10--10--|
--------------------------|---8---8---8---8---8---8---8---8--|


  PM PM PM PM PM PM PM PM                                          
  E  E  E  E  E  E  E  E     W                   W                 
--------------------------|-------------------|-------------------|
--------------------------|--0----------------|-------------------|
--------------------------|-------------------|-------------------|
--------------------------|--2----------------|-------------------|
--9--9--9--9--9--9--9--9--|--2----------------|--5----------------|
--7--7--7--7--7--7--7--7--|--0----------------|--3----------------|


  E  E  E  Q    E  Q       E  E  H.                                
------------------------|---------------------|-------------------|
--3--------3------------|---------------------|-------------------|
--2--2--2--2----2--2----|--4------------------|-------------------|
--0--2--2--0----2--2----|--4------------------|-------------------|
-----0--0-------0--0----|--2------------------|-------------------|
------------------------|---------------------|-------------------|


-------------------|-------------------|-------------------|-------------------|
-------------------|-------------------|-------------------|-------------------|
-------------------|-------------------|-------------------|-------------------|
-------------------|-------------------|-------------------|-------------------|
-------------------|-------------------|-------------------|-------------------|
-------------------|-------------------|-------------------|-------------------|


-------------------|-------------------|-------------------|-------------------|
-------------------|-------------------|-------------------|-------------------|
-------------------|-------------------|-------------------|-------------------|
-------------------|-------------------|-------------------|-------------------|
-------------------|-------------------|-------------------|-------------------|
-------------------|-------------------|-------------------|-------------------|


-------------------|-------------------|-------------------|
-------------------|-------------------|-------------------|
-------------------|-------------------|-------------------|
-------------------|-------------------|-------------------|
-------------------|-------------------|-------------------|
-------------------|-------------------|-------------------|


         NH                                                               
  Q      E  E  H           W                   E  E  E  E   E  E  E   E   
------------------------|-------------------|--L--0--0--0---0-----0---0--|
---------------8--------|--L----------------|--L--5--7--8--10-----8p--7--|
-------<>5-----7--------|--L----------------|-----4-------------------8--|
-------<>5--------------|-------------------|----------------------------|
------------------------|-------------------|----------------------------|
------------------------|-------------------|----------------------------|


                              NH                                  
  W                   E  E    E  E  H           W                 
--L----------------|--L----------------------|-------------------|
--L----------------|--L-------------8--------|--L----------------|
--L----------------|--L-----<>5-----7--------|--L----------------|
-------------------|--------<>5--------------|-------------------|
-------------------|-------------------------|-------------------|
-------------------|-------------------------|-------------------|


                                                          NH              
  E  E  E  E   E  E  E   E     W                   Q      E  E  H         
-----0--0--0---0-----0---0--|--L----------------|------------------------|
--L--5--7--8--10-----8p--7--|--L----------------|---------------8--------|
--L--4-------------------8--|--L----------------|-------<>5-----7--------|
----------------------------|-------------------|-------<>5--------------|
----------------------------|-------------------|------------------------|
----------------------------|-------------------|------------------------|


  W                   E  E  E  E   E  E  E   E     W                 
-------------------|--L--0--0--0---0-----0---0--|--L----------------|
--L----------------|--L--5--7--8--10-----8p--7--|--L----------------|
--L----------------|-----4-------------------8--|--L----------------|
-------------------|----------------------------|-------------------|
-------------------|----------------------------|-------------------|
-------------------|----------------------------|-------------------|


          NH                                                               
  E  E    E  E  H           W                   E  E  E  E   E  E  E   E   
--L----------------------|-------------------|-----0--0--0---0-----0---0--|
--L-------------8--------|--L----------------|--L--5--7--8--10-----8p--7--|
--L-----<>5-----7--------|--L----------------|--L--4-------------------8--|
--------<>5--------------|-------------------|----------------------------|
-------------------------|-------------------|----------------------------|
-------------------------|-------------------|----------------------------|


                      PM PM PM PM PM PM PM PM    PM PM PM PM PM PM PM PM  
  W                   E  E  E  E  E  E  E  E     E  E  E  E  E  E  E  E   
--L----------------|--------------------------|--------------------------|
--L----------------|--------------------------|--------------------------|
--L----------------|--8--8--8--8--8--8--8--8--|--9--9--9--9--9--9--9--9--|
-------------------|--8--8--8--8--8--8--8--8--|--9--9--9--9--9--9--9--9--|
-------------------|--6--6--6--6--6--6--6--6--|--7--7--7--7--7--7--7--7--|
-------------------|--------------------------|--------------------------|


   PM  PM  PM  PM  PM  PM  PM  PM    PM PM PM PM PM PM PM PM  
   E   E   E   E   E   E   E   E     E  E  E  E  E  E  E  E   
----------------------------------|--------------------------|
----------------------------------|--------------------------|
----------------------------------|--------------------------|
----------------------------------|--------------------------|
--10--10--10--10--10--10--10--10--|--9--9--9--9--9--9--9--9--|
---8---8---8---8---8---8---8---8--|--7--7--7--7--7--7--7--7--|


  PM PM PM PM PM PM PM PM    PM PM PM PM PM PM PM PM  
  E  E  E  E  E  E  E  E     E  E  E  E  E  E  E  E   
--------------------------|--------------------------|
--------------------------|--------------------------|
--8--8--8--8--8--8--8--8--|--9--9--9--9--9--9--9--9--|
--8--8--8--8--8--8--8--8--|--9--9--9--9--9--9--9--9--|
--6--6--6--6--6--6--6--6--|--7--7--7--7--7--7--7--7--|
--------------------------|--------------------------|


   PM  PM  PM  PM  PM  PM  PM  PM    PM PM PM PM PM PM PM PM  
   E   E   E   E   E   E   E   E     E  E  E  E  E  E  E  E   
----------------------------------|--------------------------|
----------------------------------|--------------------------|
----------------------------------|--------------------------|
----------------------------------|--------------------------|
--10--10--10--10--10--10--10--10--|--9--9--9--9--9--9--9--9--|
---8---8---8---8---8---8---8---8--|--7--7--7--7--7--7--7--7--|


  H        Q    E  E     E  E  H.              W                 
----------------------|---------------------|-------------------|
----------------------|---------------------|-------------------|
----------------------|-----2--2------------|--5----------------|
--2--------L----------|-----2--2------------|--5----------------|
--2--------L-------5--|-----0--0------------|--3----------------|
--0--------L-------3--|---------------------|-------------------|


  E  E  E  Q    E  E  E     H        Q    E  E     E  E  H.            
-------------------------|----------------------|---------------------|
--3--------3-------------|----------------------|---------------------|
--2--2--2--2----2--2-----|----------------------|-----2--2------------|
--0--2--2--0----2--2--0--|--2--------L----------|-----2--2------------|
-----0--0-------0--0-----|--2--------L-------5--|-----0--0------------|
----------------------3--|--0--------L-------3--|---------------------|


                                                PM PM PM PM PM PM PM PM  
  W                   E  E  E  Q    E  E  E     E  E  E  E  E  E  E  E   
-------------------|-------------------------|--------------------------|
-------------------|--3--------3-------------|--------------------------|
--5----------------|--2--2--2--2----2--2-----|--8--8--8--8--8--8--8--8--|
--5----------------|--0--2--2--0----2--2--2--|--8--8--8--8--8--8--8--8--|
--3----------------|-----0--0-------0--0--0--|--6--6--6--6--6--6--6--6--|
-------------------|-------------------------|--------------------------|


  PM PM PM PM PM PM PM PM     PM  PM  PM  PM  PM  PM  PM  PM  
  E  E  E  E  E  E  E  E      E   E   E   E   E   E   E   E   
--------------------------|----------------------------------|
--------------------------|----------------------------------|
--9--9--9--9--9--9--9--9--|----------------------------------|
--9--9--9--9--9--9--9--9--|----------------------------------|
--7--7--7--7--7--7--7--7--|--10--10--10--10--10--10--10--10--|
--------------------------|---8---8---8---8---8---8---8---8--|


  PM PM PM PM PM PM PM PM                                          
  E  E  E  E  E  E  E  E     W                   W                 
--------------------------|-------------------|-------------------|
--------------------------|-------------------|-------------------|
--------------------------|-------------------|-------------------|
--------------------------|--2----------------|-------------------|
--9--9--9--9--9--9--9--9--|--2----------------|--5----------------|
--7--7--7--7--7--7--7--7--|--0----------------|--3----------------|


  W                   W                   W                   W                 
-------------------|-------------------|-------------------|-------------------|
-------------------|-------------------|-------------------|-------------------|
-------------------|--5----------------|-------------------|-------------------|
--2----------------|--5----------------|--2----------------|-------------------|
--0----------------|--3----------------|--2----------------|--5----------------|
-------------------|-------------------|--0----------------|--3----------------|


  W                   W                   W                   W                 
-------------------|-------------------|-------------------|-------------------|
-------------------|-------------------|-------------------|-------------------|
-------------------|--5----------------|-------------------|-------------------|
--2----------------|--5----------------|--2----------------|-------------------|
--0----------------|--3----------------|--2----------------|--5----------------|
-------------------|-------------------|--0----------------|--3----------------|


  W                   W                   W                   W                 
-------------------|-------------------|-------------------|-------------------|
-------------------|-------------------|-------------------|-------------------|
-------------------|--5----------------|-------------------|-------------------|
--2----------------|--5----------------|--2----------------|-------------------|
--0----------------|--3----------------|--2----------------|--5----------------|
-------------------|-------------------|--0----------------|--3----------------|


  W                   W                   W                   W                 
-------------------|-------------------|-------------------|-------------------|
-------------------|-------------------|-------------------|-------------------|
-------------------|--5----------------|-------------------|-------------------|
--2----------------|--5----------------|--2----------------|-------------------|
--0----------------|--3----------------|--2----------------|--5----------------|
-------------------|-------------------|--0----------------|--3----------------|


  W                   W                  
-------------------|-------------------||
-------------------|-------------------||
-------------------|--5----------------||
--2----------------|--5----------------||
--0----------------|--3----------------||
-------------------|-------------------||



=============================================================================

Guitar 2



     W                   W                   W                 
E||--3----------------|--L----------------|-------------------|
B||--5----------------|--L----------------|--1----------------|
G||--4----------------|--L----------------|--0----------------|
D||-------------------|-------------------|--2----------------|
A||-------------------|-------------------|--3----------------|
E||-------------------|-------------------|-------------------|


  W                   W                   W                 
-------------------|-------------------|-------------------|
--L----------------|-------------------|-------------------|
--L----------------|--2----------------|--L----------------|
--L----------------|--2----------------|--L----------------|
--L----------------|--0----------------|--L----------------|
-------------------|-------------------|-------------------|


     PM PM PM PM PM PM PM       PM PM PM PM           
  E  E  E  E  E  E  E  E     E  E  E  E  E  E  E  E   
--------------------------|--------------------------|
--------------------------|--------------------------|
--4--4--4--4--4--4--4--4--|--4--4--4--4--4--4--4--4--|
--4--4--4--4--4--4--4--4--|--4--4--4--4--4--4--4--4--|
--2--2--2--2--2--2--2--2--|--2--2--2--2--2--2--2--2--|
--------------------------|--------------------------|


         NH       NH                                                           
  Q      E  E     H            W                    E  E  E  E   E  E  E   E   
---------------------------|--------------------|------0--0--0---0-----0---0--|
---------------------------|--------------------|------5--7--8--10-----8p--7--|
-------<>5-----<>12--------|---L----------------|---L--4-------------------8--|
-------<>5-----<>12--------|---L----------------|---L-------------------------|
---------------------------|--------------------|-----------------------------|
---------------------------|--------------------|-----------------------------|


                              NH       NH                             
  W                   E  E    E  E     H            W                 
--L----------------|--L-------------------------|--------------------|
--L----------------|--L-------------------------|--------------------|
--L----------------|--L-----<>5-----<>12--------|---L----------------|
-------------------|--------<>5-----<>12--------|---L----------------|
-------------------|----------------------------|--------------------|
-------------------|----------------------------|--------------------|


   E  E  E  E   E  E  E   E     W                   W                 
------0--0--0---0-----0---0--|--L----------------|--3----------------|
------5--7--8--10-----8p--7--|--L----------------|--5----------------|
---L--4-------------------8--|--L----------------|--4----------------|
---L-------------------------|-------------------|-------------------|
-----------------------------|-------------------|-------------------|
-----------------------------|-------------------|-------------------|


  W                   W                   W                   W                 
--L----------------|--0----------------|--L----------------|--3----------------|
--L----------------|--1----------------|--L----------------|--5----------------|
--L----------------|--0----------------|--L----------------|--4----------------|
-------------------|--2----------------|--L----------------|-------------------|
-------------------|--3----------------|--L----------------|-------------------|
-------------------|-------------------|-------------------|-------------------|


  W                   W                   W                   W                 
--L----------------|--0----------------|--L----------------|-------------------|
--L----------------|--1----------------|--L----------------|-------------------|
--L----------------|--0----------------|--L----------------|--2----------------|
-------------------|--2----------------|--L----------------|--2----------------|
-------------------|--3----------------|--L----------------|--0----------------|
-------------------|-------------------|-------------------|-------------------|


  W                   W                   W                   W                 
-------------------|--3----------------|--L----------------|-------------------|
-------------------|--5----------------|--L----------------|--3----------------|
--L----------------|--4----------------|--L----------------|--2----------------|
--L----------------|-------------------|-------------------|--0----------------|
--L----------------|-------------------|-------------------|-------------------|
-------------------|-------------------|-------------------|-------------------|


                         PM PM PM PM PM PM PM    PM PM                    
  W                   E  E  E  E  E  E  E  E     E  E  E  E  E  E  E  E   
-------------------|--------------------------|--------------------------|
--L----------------|--------------------------|--------------------------|
--L----------------|--4--4--4--4--4--4--4--4--|--4--4--4--4--4--4--4--4--|
--L----------------|--4--4--4--4--4--4--4--4--|--4--4--4--4--4--4--4--4--|
-------------------|--2--2--2--2--2--2--2--2--|--2--2--2--2--2--2--2--2--|
-------------------|--------------------------|--------------------------|


  H        Q    E  E     E  E  H.              W                 
--3--------L----------|---------------------|-------------------|
--5--------L----------|---------------------|--1----------------|
--4--------L-------0--|-----2--2------------|--0----------------|
-------------------0--|-----2--2------------|--2----------------|
----------------------|-----0--0------------|--3----------------|
-------------------3--|---------------------|-------------------|


  E  E  E  Q    E  E  E     H        Q    E  E     E  E  H.            
-------------------------|----------------------|---------------------|
--3--------3-------------|----------------------|---------------------|
--2--2--2--2----2--2-----|-------------------0--|-----2--2------------|
--0--2--2--0----2--2--0--|--2--------L-------0--|-----2--2------------|
-----0--0-------0--0-----|--2--------L----------|-----0--0------------|
----------------------3--|--0--------L-------3--|---------------------|


  W                   E  E  E  Q    E  E  E     E  E  E  E  E  E  E  E   
-------------------|-------------------------|--------------------------|
--1----------------|--3--------3-------------|--4--4--4--4--4--4--4--4--|
--0----------------|--2--2--2--2----2--2-----|--3--3--3--3--3--3--3--3--|
--2----------------|--0--2--2--0----2--2--2--|--1--1--1--1--1--1--1--1--|
--3----------------|-----0--0-------0--0--0--|--------------------------|
-------------------|-------------------------|--------------------------|


  E  E  E  E  E  E  E  E     E  E  E  E  E  E  E  E   
--------------------------|--------------------------|
--5--5--5--5--5--5--5--5--|--1--1--1--1--1--1--1--1--|
--4--4--4--4--4--4--4--4--|--0--0--0--0--0--0--0--0--|
--2--2--2--2--2--2--2--2--|--2--2--2--2--2--2--2--2--|
--------------------------|--3--3--3--3--3--3--3--3--|
--------------------------|--------------------------|


  E  E  E  E  E  E  E  E     W                   W                 
--------------------------|--0----------------|--3----------------|
--------------------------|--0----------------|--3----------------|
--4--4--4--4--4--4--4--4--|--0----------------|--0----------------|
--4--4--4--4--4--4--4--4--|--2----------------|--0----------------|
--2--2--2--2--2--2--2--2--|--2----------------|-------------------|
--------------------------|--0----------------|--3----------------|


  E  E  E  Q    E  Q       E  E  H.                            
------------------------|---------------------|-------|-------|
--3--------3------------|---------------------|-------|-------|
--2--2--2--2----2--2----|--4------------------|-------|-------|
--0--2--2--0----2--2----|--4------------------|-------|-------|
-----0--0-------0--0----|--2------------------|-------|-------|
------------------------|---------------------|-------|-------|


                                                           NH       NH        
  E  E  E  E   E  E  E   E     W                   E  E    E  E     H         
-----0--0--0---0-----0---0--|--L----------------|----------------------------|
-----5--7--8--10-----8p--7--|--L----------------|--L-------------------------|
-----4-------------------8--|--L----------------|--L-----<>5-----<>12--------|
----------------------------|-------------------|--------<>5-----<>12--------|
----------------------------|-------------------|----------------------------|
----------------------------|-------------------|----------------------------|


   W                    E  E  E  E   E  E  E   E     W                 
--------------------|------0--0--0---0-----0---0--|--L----------------|
--------------------|------5--7--8--10-----8p--7--|--L----------------|
---L----------------|---L--4-------------------8--|--L----------------|
---L----------------|---L-------------------------|-------------------|
--------------------|-----------------------------|-------------------|
--------------------|-----------------------------|-------------------|


  W                   W                   W                   W                 
--3----------------|--L----------------|--0----------------|--L----------------|
--5----------------|--L----------------|--1----------------|--L----------------|
--4----------------|--L----------------|--0----------------|--L----------------|
-------------------|-------------------|--2----------------|--L----------------|
-------------------|-------------------|--3----------------|--L----------------|
-------------------|-------------------|-------------------|-------------------|


  W                   W                   W                   W                 
--3----------------|--L----------------|--0----------------|--L----------------|
--5----------------|--L----------------|--1----------------|--L----------------|
--4----------------|--L----------------|--0----------------|--L----------------|
-------------------|-------------------|--2----------------|--L----------------|
-------------------|-------------------|--3----------------|--L----------------|
-------------------|-------------------|-------------------|-------------------|


  W                   W                   W                   W                 
-------------------|-------------------|--3----------------|--L----------------|
-------------------|-------------------|--5----------------|--L----------------|
--2----------------|--L----------------|--4----------------|--L----------------|
--2----------------|--L----------------|-------------------|-------------------|
--0----------------|--L----------------|-------------------|-------------------|
-------------------|-------------------|-------------------|-------------------|


                                             PM PM PM PM PM PM PM  
  W                   W                   E  E  E  E  E  E  E  E   
-------------------|-------------------|--------------------------|
--3----------------|--L----------------|--------------------------|
--2----------------|--L----------------|--4--4--4--4--4--4--4--4--|
--0----------------|--L----------------|--4--4--4--4--4--4--4--4--|
-------------------|-------------------|--2--2--2--2--2--2--2--2--|
-------------------|-------------------|--------------------------|


  PM PM                                                                 
  E  E  E  E  E  E  E  E     H        Q    E  E     E  E  H.            
--------------------------|--3--------L----------|---------------------|
--------------------------|--5--------L----------|---------------------|
--4--4--4--4--4--4--4--4--|--4--------L-------0--|-----2--2------------|
--4--4--4--4--4--4--4--4--|-------------------0--|-----2--2------------|
--2--2--2--2--2--2--2--2--|----------------------|-----0--0------------|
--------------------------|-------------------3--|---------------------|


  W                   E  E  E  Q    E  E  E     H        Q    E  E   
-------------------|-------------------------|----------------------|
--1----------------|--3--------3-------------|----------------------|
--0----------------|--2--2--2--2----2--2-----|-------------------0--|
--2----------------|--0--2--2--0----2--2--0--|--2--------L-------0--|
--3----------------|-----0--0-------0--0-----|--2--------L----------|
-------------------|----------------------3--|--0--------L-------3--|


  E  E  H.              W                   E  E  E  Q    E  E  E   
---------------------|-------------------|-------------------------|
---------------------|--1----------------|--3--------3-------------|
-----2--2------------|--0----------------|--2--2--2--2----2--2-----|
-----2--2------------|--2----------------|--0--2--2--0----2--2--2--|
-----0--0------------|--3----------------|-----0--0-------0--0--0--|
---------------------|-------------------|-------------------------|


  E  E  E  E  E  E  E  E     E  E  E  E  E  E  E  E   
--------------------------|--------------------------|
--4--4--4--4--4--4--4--4--|--5--5--5--5--5--5--5--5--|
--3--3--3--3--3--3--3--3--|--4--4--4--4--4--4--4--4--|
--1--1--1--1--1--1--1--1--|--2--2--2--2--2--2--2--2--|
--------------------------|--------------------------|
--------------------------|--------------------------|


  E  E  E  E  E  E  E  E     E  E  E  E  E  E  E  E     W                 
--------------------------|--------------------------|--0----------------|
--1--1--1--1--1--1--1--1--|--------------------------|--0----------------|
--0--0--0--0--0--0--0--0--|--4--4--4--4--4--4--4--4--|--0----------------|
--2--2--2--2--2--2--2--2--|--4--4--4--4--4--4--4--4--|--2----------------|
--3--3--3--3--3--3--3--3--|--2--2--2--2--2--2--2--2--|--2----------------|
--------------------------|--------------------------|--0----------------|


  W                   E  E  E  Q    E  Q       E  E  H.                    
--3----------------|------------------------|---------------------|-------|
--3----------------|--3--------3------------|---------------------|-------|
--0----------------|--2--2--2--2----2--2----|--4------------------|-------|
--0----------------|--0--2--2--0----2--2----|--4------------------|-------|
-------------------|-----0--0-------0--0----|--2------------------|-------|
--3----------------|------------------------|---------------------|-------|


-------|-------|-------|-------|-------|-------|-------|-------|-------|-------|
-------|-------|-------|-------|-------|-------|-------|-------|-------|-------|
-------|-------|-------|-------|-------|-------|-------|-------|-------|-------|
-------|-------|-------|-------|-------|-------|-------|-------|-------|-------|
-------|-------|-------|-------|-------|-------|-------|-------|-------|-------|
-------|-------|-------|-------|-------|-------|-------|-------|-------|-------|


           tr             tr                          
  H        H              Q        Q      Q     Q     
-----------------------|-----------------------------|
-----------------------|----------15b----------15----|
-----------------------|----------14b----12-----L----|
-----------------------|-----------------------------|
-----------5(7)--------|--5(7)-----------------------|
-----------------------|-----------------------------|


                          |---3---|                          
   H          E    S   S  E   E   E       H        H         
--------------------------------------|---------------------|
--15---------15-----------------------|---------------------|
--14b--------14b--14p-12-14--12-------|---------------------|
---------------------------------14~--|---L-----------------|
--------------------------------------|---------------------|
--------------------------------------|---------------------|


   E.    S  E   E   Q      E   E       S S S S  S S S S  S S  S S S  S S S  
-----------15-------------15---L\--|--12-0-0-0-12-0-0-0-12-0-12-0-0-12-0-0-|
--------12-----16--17~----17--17\--|---------------------------------------|
--14b------------------------------|---------------------------------------|
-----------------------------------|---------------------------------------|
-----------------------------------|---------------------------------------|
-----------------------------------|---------------------------------------|


                                             W                                
                           |-----5-----|                        |----3----|   
   S S S S  S S S S  Q     S  S  S  S  S     Q      E   Q.      E    E    E   
--12-0-0-0-12-0-0-0-15----12-------------|---------------------10s--12s--10--|
-----------------------------15-12-------|---------------------10s--12s--10--|
-----------------------------------14-12-|---L~-----L\-----------------------|
-----------------------------------------|-----------------------------------|
-----------------------------------------|-----------------------------------|
-----------------------------------------|-----------------------------------|


   S  S  S  S   S  S  S  S   S  S  S  S   Q      
--10-10-10-10s-12-12-12-12s-15-15-15-15---------|
--10-10-10-10s-12-12-12-12s-15-15-15-15---------|
------------------------------------------------|
------------------------------------------------|
------------------------------------------------|
----------------------------------------/15\----|


  E   Q      E     Q       Q       
----------------------------------|
-----12------L----12------12------|
-----14b----14b~--14b~----14b~----|
----------------------------------|
----------------------------------|
--0-------------------------------|


   E       E       E       E    S   S  S   S  Q      
----------------------------------------------------|
--12------12------12------12~-----------------------|
--14brb~--14brb~--14brb~--14b--14p-12---------------|
--------------------------------------14p-12-14~----|
----------------------------------------------------|
----------------------------------------------------|


  E   E   S  S  S  S  E   E   E    E      E.   Q     Q      S  Q      
-----12--12-------15------------------|------------------------------|
-----12--13-12-12----12--12---Lb--12--|--11---12----15b-----L-15b----|
--------------------------------------|------------------------------|
--------------------------------------|------------------------------|
--------------------------------------|------------------------------|
--------------------------------------|------------------------------|


  E  S   S S S S  S S  S S S S  S E   
-------------------------------------|
-------------------------------------|
-----------8-9-8----9----8-9-8----9--|
-----9h-10-------10---10-------10----|
-------------------------------------|
-------------------------------------|


        PM       PM        PM       PM             
   S  S S   S  S S   S  S  S  S  S  S  S  S  S  S  
--------------------15-12----15-12----15-12----15-|
--------------------------12-------12-------12----|
--12p-9----12p-9----------------------------------|
--------9--------9--------------------------------|
--------------------------------------------------|
--------------------------------------------------|


   S  S  T  T. T. S  T. T. T. T. S  T. T. T. T. S  T. T. T. T. 
--12-15-12-12-12-15-12-12-12-12-17-12-12-12-12-15-12-12-12-12-|
--------------------------------------------------------------|
--------------------------------------------------------------|
--------------------------------------------------------------|
--------------------------------------------------------------|
--------------------------------------------------------------|


   S  T. T. T. T. S  T. T. T. T. S  T. T. T. T. S  T. T. T. T. 
--17-12-12-12-12-15-12-12-12-12-17-12-12-12-12-15-12-12-12-12-|
--------------------------------------------------------------|
--------------------------------------------------------------|
--------------------------------------------------------------|
--------------------------------------------------------------|
--------------------------------------------------------------|


   Q     Q     E  E  E  E     E  E  E  E  E  E  E  E   
--12-----L\----------------|--------------------------|
--12-----L\----4--4--4--4--|--5--5--5--5--5--5--5--5--|
---------------3--3--3--3--|--4--4--4--4--4--4--4--4--|
---------------1--1--1--1--|--2--2--2--2--2--2--2--2--|
---------------------------|--------------------------|
---------------------------|--------------------------|


  E  E  E  E  E  E  E  E     E  E  E  E  E  E  E  E   
--------------------------|--------------------------|
--1--1--1--1--1--1--1--1--|--------------------------|
--0--0--0--0--0--0--0--0--|--4--4--4--4--4--4--4--4--|
--2--2--2--2--2--2--2--2--|--4--4--4--4--4--4--4--4--|
--3--3--3--3--3--3--3--3--|--2--2--2--2--2--2--2--2--|
--------------------------|--------------------------|


  E  E  E  E  E  E  E  E     E  E  E  E  E  E  E  E   
--------------------------|--------------------------|
--4--4--4--4--4--4--4--4--|--5--5--5--5--5--5--5--5--|
--3--3--3--3--3--3--3--3--|--4--4--4--4--4--4--4--4--|
--1--1--1--1--1--1--1--1--|--2--2--2--2--2--2--2--2--|
--------------------------|--------------------------|
--------------------------|--------------------------|


  E  E  E  E  E  E  E  E     E  E  E  E  E  E  E  E     H        Q    E  E   
--------------------------|--------------------------|--3--------L----------|
--1--1--1--1--1--1--1--1--|--------------------------|--5--------L----------|
--0--0--0--0--0--0--0--0--|--4--4--4--4--4--4--4--4--|--4--------L-------0--|
--2--2--2--2--2--2--2--2--|--4--4--4--4--4--4--4--4--|-------------------0--|
--3--3--3--3--3--3--3--3--|--2--2--2--2--2--2--2--2--|----------------------|
--------------------------|--------------------------|-------------------3--|


  E  E  H.              W                   E  E  E  Q    E  E  E   
---------------------|-------------------|-------------------------|
---------------------|--1----------------|--3--------3-------------|
-----2--2------------|--0----------------|--2--2--2--2----2--2-----|
-----2--2------------|--2----------------|--0--2--2--0----2--2--0--|
-----0--0------------|--3----------------|-----0--0-------0--0-----|
---------------------|-------------------|----------------------3--|


  H        Q    E  E     E  E  H.              W                 
----------------------|---------------------|-------------------|
----------------------|---------------------|--1----------------|
-------------------0--|-----2--2------------|--0----------------|
--2--------L-------0--|-----2--2------------|--2----------------|
--2--------L----------|-----0--0------------|--3----------------|
--0--------L-------3--|---------------------|-------------------|


  E  E  E  Q    E  E  E     E  E  E  E  E  E  E  E     E  E  E  E  E  E  E  E   
-------------------------|--------------------------|--------------------------|
--3--------3-------------|--4--4--4--4--4--4--4--4--|--5--5--5--5--5--5--5--5--|
--2--2--2--2----2--2-----|--3--3--3--3--3--3--3--3--|--4--4--4--4--4--4--4--4--|
--0--2--2--0----2--2--2--|--1--1--1--1--1--1--1--1--|--2--2--2--2--2--2--2--2--|
-----0--0-------0--0--0--|--------------------------|--------------------------|
-------------------------|--------------------------|--------------------------|


  E  E  E  E  E  E  E  E     E  E  E  E  E  E  E  E     W                 
--------------------------|--------------------------|--0----------------|
--1--1--1--1--1--1--1--1--|--------------------------|--0----------------|
--0--0--0--0--0--0--0--0--|--4--4--4--4--4--4--4--4--|--0----------------|
--2--2--2--2--2--2--2--2--|--4--4--4--4--4--4--4--4--|--2----------------|
--3--3--3--3--3--3--3--3--|--2--2--2--2--2--2--2--2--|--2----------------|
--------------------------|--------------------------|--0----------------|


  W                   W                   W                   W                 
--3----------------|-------------------|-------------------|--0----------------|
--3----------------|-------------------|--1----------------|--0----------------|
--0----------------|--2----------------|--0----------------|--0----------------|
--0----------------|--2----------------|--2----------------|--2----------------|
-------------------|--0----------------|--3----------------|--2----------------|
--3----------------|-------------------|-------------------|--0----------------|


  W                   W                   W                   W                 
--3----------------|-------------------|-------------------|--0----------------|
--3----------------|-------------------|--1----------------|--0----------------|
--0----------------|--2----------------|--0----------------|--0----------------|
--0----------------|--2----------------|--2----------------|--2----------------|
-------------------|--0----------------|--3----------------|--2----------------|
--3----------------|-------------------|-------------------|--0----------------|


  W                   W                   W                   W                 
--3----------------|-------------------|-------------------|--0----------------|
--3----------------|-------------------|--1----------------|--0----------------|
--0----------------|--2----------------|--0----------------|--0----------------|
--0----------------|--2----------------|--2----------------|--2----------------|
-------------------|--0----------------|--3----------------|--2----------------|
--3----------------|-------------------|-------------------|--0----------------|


  W                   W                   W                   W                 
--3----------------|-------------------|-------------------|--0----------------|
--3----------------|-------------------|--1----------------|--0----------------|
--0----------------|--2----------------|--0----------------|--0----------------|
--0----------------|--2----------------|--2----------------|--2----------------|
-------------------|--0----------------|--3----------------|--2----------------|
--3----------------|-------------------|-------------------|--0----------------|


  W                   W                   W                  
--3----------------|-------------------|-------------------||
--3----------------|-------------------|--1----------------||
--0----------------|--2----------------|--0----------------||
--0----------------|--2----------------|--2----------------||
-------------------|--0----------------|--3----------------||
--3----------------|-------------------|-------------------||




Duration Legend
---------------
W - whole
H - half
Q - quarter
E - 8th
S - 16th
T - 32nd
X - 64th
. - note dotted
|-n-|  - n-tuplets


Tablature Legend
----------------
L - tied note
x - dead note
g - grace note
(n) - ghost note
> - accentuded note
NH - natural harmonic
AH - artificial harmonic
TH - tapped harmonic
SH - semi harmonic
PH - pitch harmonic
h - hammer on
p - pull off
b - bend
br - bendRelease
pb - preBend
pbr - preBendRelease
brb - bendReleaseBend
\n/ - tremolo bar dip
\n - tremolo bar dive
-/n - tremolo bar Release up
/n\ - tremolo bar inverted dip
/n - tremolo bar return
-\n - tremolo bar Release down
S - shift slide
s - legato slide
/ -  slide into from below or out of upwards
\ -  slide into from above or out of downwards
~ - vibrato
W - wide vibrato
tr - trill
TP - tremolo picking
T - tapping
S - slap
P - pop
< - fade in
^ - brush up
v - brush down


Добавлено: 05.10.2013
Другие материалы по этой песне:

Страница создана 04.06.2012
http://primanota.ru/kix/cold-chills-chords.htm
Привет, Гость.
Предлагаем пройти революционный курс по гитаре.
Подарок от PrimaNota.Ru, забирай!