PrimaNota.ru - самый крупный в мире бесплатный архив песенных текстов, аккордов, табулатур и нот


Kix - Hee Bee Jee Bee Crush - текст песни, таба, видео

Регистрация Запомнить меня
Войти через:  Facebook Google Twitter Vk Yandex Mail.ru

Kix - Hee Bee Jee Bee Crush - текст песни, таба, видео

Печатать
Просмотров: 179
-----------------------------------------------------------------------------
                                  
                Hee Bee Jee Bee Crush - Kix (GUITAR)
            
-----------------------------------------------------------------------------
Tabbed by: Scotto10

Tuning: standard tuning

=============================================================================

Guitar 



          PM PM PM PM PM PM    PM PM PM PM PM PM       
     Q    E  E  E  E  E  E     E  E  E  E  E  E  Q     
E||-------------------------|-------------------------|
B||-------------------------|-------------------------|
G||--7----------------------|--------------------7----|
D||--7----------------------|--------------------7----|
A||--5----------------------|--------------------5----|
E||-------0--0--0--0--0--0--|--0--0--0--0--0--0-------|


       PM PM PM PM PM PM    PM                          PM PM PM PM PM PM  
  Q    E  E  E  E  E  E     E  Q.     Q    Q       Q    E  E  E  E  E  E   
-------------------------|----------------------|-------------------------|
-------------------------|----------------------|-------------------------|
--7----------------------|----------------------|--7----------------------|
--7----------------------|-----7------6----5----|--7----------------------|
--5----------------------|-----7------6----5----|--5----------------------|
-------0--0--0--0--0--0--|--0-------------------|-------0--0--0--0--0--0--|


  PM PM PM PM PM PM              PM PM PM PM PM PM    PM                   
  E  E  E  E  E  E  Q       Q    E  E  E  E  E  E     E  Q.     Q    Q     
-------------------------|-------------------------|----------------------|
-------------------------|-------------------------|----------------------|
--------------------7----|--7----------------------|----------------------|
--------------------7----|--7----------------------|-----7------6----5----|
--------------------5----|--5----------------------|-----7------6----5----|
--0--0--0--0--0--0-------|-------0--0--0--0--0--0--|--0-------------------|


       PM PM PM PM PM PM    PM PM PM PM PM PM              PM PM PM PM PM PM  
  Q    E  E  E  E  E  E     E  E  E  E  E  E  Q       Q    E  E  E  E  E  E   
-------------------------|-------------------------|-------------------------|
-------------------------|-------------------------|-------------------------|
--7----------------------|--------------------7----|--7----------------------|
--7----------------------|--------------------7----|--7----------------------|
--5----------------------|--------------------5----|--5----------------------|
-------0--0--0--0--0--0--|--0--0--0--0--0--0-------|-------0--0--0--0--0--0--|


  PM                          PM PM PM PM PM PM    PM PM PM PM PM PM       
  E  Q.     Q    Q       Q    E  E  E  E  E  E     E  E  E  E  E  E  Q     
----------------------|-------------------------|-------------------------|
----------------------|-------------------------|-------------------------|
----------------------|--7----------------------|--------------------7----|
-----7------6----5----|--7----------------------|--------------------7----|
-----7------6----5----|--5----------------------|--------------------5----|
--0-------------------|-------0--0--0--0--0--0--|--0--0--0--0--0--0-------|


       PM PM PM PM PM PM    PM                          PM PM PM PM PM PM  
  Q    E  E  E  E  E  E     E  Q.     Q    Q       Q    E  E  E  E  E  E   
-------------------------|----------------------|-------------------------|
-------------------------|----------------------|-------------------------|
--7----------------------|----------------------|--7----------------------|
--7----------------------|-----7------6----5----|--7----------------------|
--5----------------------|-----7------6----5----|--5----------------------|
-------0--0--0--0--0--0--|--0-------------------|-------0--0--0--0--0--0--|


  PM PM PM PM PM PM              PM PM PM PM PM PM    PM                   
  E  E  E  E  E  E  Q       Q    E  E  E  E  E  E     E  Q.     Q    Q     
-------------------------|-------------------------|----------------------|
-------------------------|-------------------------|----------------------|
--------------------7----|--7----------------------|----------------------|
--------------------7----|--7----------------------|-----7------6----5----|
--------------------5----|--5----------------------|-----7------6----5----|
--0--0--0--0--0--0-------|-------0--0--0--0--0--0--|--0-------------------|


       PM PM PM PM PM PM    PM PM PM PM PM PM              PM PM PM PM PM PM  
  Q    E  E  E  E  E  E     E  E  E  E  E  E  Q       Q    E  E  E  E  E  E   
-------------------------|-------------------------|-------------------------|
-------------------------|-------------------------|-------------------------|
--7----------------------|--------------------7----|--7----------------------|
--7----------------------|--------------------7----|--7----------------------|
--5----------------------|--------------------5----|--5----------------------|
-------0--0--0--0--0--0--|--0--0--0--0--0--0-------|-------0--0--0--0--0--0--|


  PM                          PM PM PM PM PM PM    PM PM PM PM PM PM       
  E  Q.     Q    Q       Q    E  E  E  E  E  E     E  E  E  E  E  E  Q     
----------------------|-------------------------|-------------------------|
----------------------|-------------------------|-------------------------|
----------------------|--7----------------------|--------------------7----|
-----7------6----5----|--7----------------------|--------------------7----|
-----7------6----5----|--5----------------------|--------------------5----|
--0-------------------|-------0--0--0--0--0--0--|--0--0--0--0--0--0-------|


       PM PM PM PM PM PM    PM                          PM PM PM PM PM PM  
  Q    E  E  E  E  E  E     E  Q.     Q    Q       Q    E  E  E  E  E  E   
-------------------------|----------------------|-------------------------|
-------------------------|----------------------|-------------------------|
--7----------------------|----------------------|--7----------------------|
--7----------------------|-----7------6----5----|--7----------------------|
--5----------------------|-----7------6----5----|--5----------------------|
-------0--0--0--0--0--0--|--0-------------------|-------0--0--0--0--0--0--|


  PM PM PM PM PM PM              PM PM PM PM PM PM    PM                   
  E  E  E  E  E  E  Q       Q    E  E  E  E  E  E     E  Q.     Q    Q     
-------------------------|-------------------------|----------------------|
-------------------------|-------------------------|----------------------|
--------------------7----|--7----------------------|----------------------|
--------------------7----|--7----------------------|-----7------6----5----|
--------------------5----|--5----------------------|-----7------6----5----|
--0--0--0--0--0--0-------|-------0--0--0--0--0--0--|--0-------------------|


  W                   W                   W                 
-------------------|-------------------|-------------------|
-------------------|-------------------|-------------------|
--2----------------|--L----------------|--L----------------|
--2----------------|--L----------------|--L----------------|
--0----------------|--L----------------|--L----------------|
-------------------|-------------------|-------------------|


  E  E  E  E  E  E  E  E     W                   W                 
--------------------------|-------------------|-------------------|
--------------------------|-------------------|-------------------|
-----7--7--7-----5--5--5--|--2----------------|--L----------------|
-----7--7--7-----5--5--5--|--2----------------|--L----------------|
--x--5--5--5--x--3--3--3--|--0----------------|--L----------------|
--------------------------|-------------------|-------------------|


                                                     PM PM PM PM PM PM  
  W                   E  E  E  E  E  E  Q       Q    E  E  E  E  E  E   
-------------------|-------------------------|-------------------------|
-------------------|-------------------------|-------------------------|
--L----------------|--7--7--7--7--7--7--9----|--7----------------------|
--L----------------|--7--7--7--7--7--7--9----|--7----------------------|
--L----------------|--5--5--5--5--5--5--7----|--5----------------------|
-------------------|-------------------------|-------0--0--0--0--0--0--|


  PM PM PM PM PM PM              PM PM PM PM PM PM    PM                   
  E  E  E  E  E  E  Q       Q    E  E  E  E  E  E     E  Q.     Q    Q     
-------------------------|-------------------------|----------------------|
-------------------------|-------------------------|----------------------|
--------------------7----|--7----------------------|----------------------|
--------------------7----|--7----------------------|-----7------6----5----|
--------------------5----|--5----------------------|-----7------6----5----|
--0--0--0--0--0--0-------|-------0--0--0--0--0--0--|--0-------------------|


       PM PM PM PM PM PM    PM PM PM PM PM PM              PM PM PM PM PM PM  
  Q    E  E  E  E  E  E     E  E  E  E  E  E  Q       Q    E  E  E  E  E  E   
-------------------------|-------------------------|-------------------------|
-------------------------|-------------------------|-------------------------|
--7----------------------|--------------------7----|--7----------------------|
--7----------------------|--------------------7----|--7----------------------|
--5----------------------|--------------------5----|--5----------------------|
-------0--0--0--0--0--0--|--0--0--0--0--0--0-------|-------0--0--0--0--0--0--|


  PM                          PM PM PM PM PM PM    PM PM PM PM PM PM       
  E  Q.     Q    Q       Q    E  E  E  E  E  E     E  E  E  E  E  E  Q     
----------------------|-------------------------|-------------------------|
----------------------|-------------------------|-------------------------|
----------------------|--7----------------------|--------------------7----|
-----7------6----5----|--7----------------------|--------------------7----|
-----7------6----5----|--5----------------------|--------------------5----|
--0-------------------|-------0--0--0--0--0--0--|--0--0--0--0--0--0-------|


       PM PM PM PM PM PM    PM                          PM PM PM PM PM PM  
  Q    E  E  E  E  E  E     E  Q.     Q    Q       Q    E  E  E  E  E  E   
-------------------------|----------------------|-------------------------|
-------------------------|----------------------|-------------------------|
--7----------------------|----------------------|--7----------------------|
--7----------------------|-----7------6----5----|--7----------------------|
--5----------------------|-----7------6----5----|--5----------------------|
-------0--0--0--0--0--0--|--0-------------------|-------0--0--0--0--0--0--|


  PM PM PM PM PM PM              PM PM PM PM PM PM    PM                    
  E  E  E  E  E  E  Q       Q    E  E  E  E  E  E     E  Q.     E  Q.       
-------------------------|-------------------------|-----------------------|
-------------------------|-------------------------|-----------------------|
--------------------7----|--7----------------------|-----7-----------------|
--------------------7----|--7----------------------|-----7-----------------|
--------------------5----|--5----------------------|-----5------0--3~------|
--0--0--0--0--0--0-------|-------0--0--0--0--0--0--|--0--------------------|


       PM PM PM PM PM PM    PM PM PM PM PM PM              PM PM PM PM PM PM  
  Q    E  E  E  E  E  E     E  E  E  E  E  E  Q       Q    E  E  E  E  E  E   
-------------------------|-------------------------|-------------------------|
-------------------------|-------------------------|-------------------------|
--7----------------------|--------------------7----|--7----------------------|
--7----------------------|--------------------7----|--7----------------------|
--5----------------------|--------------------5----|--5----------------------|
-------0--0--0--0--0--0--|--0--0--0--0--0--0-------|-------0--0--0--0--0--0--|


  PM                          PM PM PM PM PM PM    PM PM PM PM PM PM       
  E  Q.     Q    Q       Q    E  E  E  E  E  E     E  E  E  E  E  E  Q     
----------------------|-------------------------|-------------------------|
----------------------|-------------------------|-------------------------|
----------------------|--7----------------------|--------------------7----|
-----7------6----5----|--7----------------------|--------------------7----|
-----7------6----5----|--5----------------------|--------------------5----|
--0-------------------|-------0--0--0--0--0--0--|--0--0--0--0--0--0-------|


       PM PM PM PM PM PM    PM                          PM PM PM PM PM PM  
  Q    E  E  E  E  E  E     E  Q.     Q    Q       Q    E  E  E  E  E  E   
-------------------------|----------------------|-------------------------|
-------------------------|----------------------|-------------------------|
--7----------------------|----------------------|--7----------------------|
--7----------------------|-----7------6----5----|--7----------------------|
--5----------------------|-----7------6----5----|--5----------------------|
-------0--0--0--0--0--0--|--0-------------------|-------0--0--0--0--0--0--|


  PM PM PM PM PM PM              PM PM PM PM PM PM    PM                   
  E  E  E  E  E  E  Q       Q    E  E  E  E  E  E     E  Q.     Q    Q     
-------------------------|-------------------------|----------------------|
-------------------------|-------------------------|----------------------|
--------------------7----|--7----------------------|----------------------|
--------------------7----|--7----------------------|-----7------6----5----|
--------------------5----|--5----------------------|-----7------6----5----|
--0--0--0--0--0--0-------|-------0--0--0--0--0--0--|--0-------------------|


       PM PM PM PM PM PM    PM PM PM PM PM PM              PM PM PM PM PM PM  
  Q    E  E  E  E  E  E     E  E  E  E  E  E  Q       Q    E  E  E  E  E  E   
-------------------------|-------------------------|-------------------------|
-------------------------|-------------------------|-------------------------|
--7----------------------|--------------------7----|--7----------------------|
--7----------------------|--------------------7----|--7----------------------|
--5----------------------|--------------------5----|--5----------------------|
-------0--0--0--0--0--0--|--0--0--0--0--0--0-------|-------0--0--0--0--0--0--|


  PM                    
  E  Q.     Q    Q      
----------------------||
----------------------||
----------------------||
-----7------6----5----||
-----7------6----5----||
--0-------------------||




Duration Legend
---------------
W - whole
H - half
Q - quarter
E - 8th
S - 16th
T - 32nd
X - 64th
. - note dotted
|-n-|  - n-tuplets


Tablature Legend
----------------
L - tied note
x - dead note
g - grace note
(n) - ghost note
> - accentuded note
NH - natural harmonic
AH - artificial harmonic
TH - tapped harmonic
SH - semi harmonic
PH - pitch harmonic
h - hammer on
p - pull off
b - bend
br - bendRelease
pb - preBend
pbr - preBendRelease
brb - bendReleaseBend
\n/ - tremolo bar dip
\n - tremolo bar dive
-/n - tremolo bar Release up
/n\ - tremolo bar inverted dip
/n - tremolo bar return
-\n - tremolo bar Release down
S - shift slide
s - legato slide
/ -  slide into from below or out of upwards
\ -  slide into from above or out of downwards
~ - vibrato
W - wide vibrato
tr - trill
TP - tremolo picking
T - tapping
S - slap
P - pop
< - fade in
^ - brush up
v - brush down
Добавлено: 27.11.2013
Вам также может быть интересно:
Другие материалы по этой песне:

Страница создана 22.06.2012
http://primanota.ru/kix/hee-bee-jee-bee-crush-chords.htm
Привет, Гость.
Предлагаем пройти революционный курс по гитаре.
Подарок от PrimaNota.Ru, забирай!