PrimaNota.ru - самый крупный в мире бесплатный архив песенных текстов, аккордов, табулатур и нот


Kix - Atomic Bombs - текст песни, таба, видео

Регистрация Запомнить меня
Войти через:  Facebook Google Twitter Vk Yandex Mail.ru

Kix - Atomic Bombs - текст песни, таба, видео

Печатать
Просмотров: 171
Sorry i don't know the solo or any of the leads but i can show you to the two Main Riffs.
 e|--------------------------------|-------------------------------|
 b|--------------------------------|-------------------------------|
 g|--9-9-7--2-----9-9-7-2----------|--9-9-7--2--3-4----9-9-7--2----|
 d|--9-9-7--2-2---9-9-7-2-----2----|--9-9-7--2--3-4-2--9-9-7--2----|
 a|--7-7-5--0-2---7-7-5-0-----2----|--7-7-5--0--1-2-2--7-7-5--0----|
 E|-----------0-----------3-2-0----|----------------0--------------|


 e|--------------------------------|-------------------------------|
 b|--------------------------------|-------------------------------|
 g|--------------------------------|-------------------------------|
 d|-----5-----4---2----4----5------|-------------------------------|
 a|-----5-----4---2----4----5------|-------------------------------|
 E|--0-0--0-0--0-0--0-0--0-0-------|-------------------------------|
     pm all 0's 
Well That's all I know hope you enjoy it! 
Добавлено: 11.04.2012
Другие материалы по этой песне:
  • Аккорды и текст

Страница создана 11.04.2012
http://primanota.ru/kix/atomic-bombs-chords.htm
Привет, Гость.
Предлагаем пройти революционный курс по гитаре.
Подарок от PrimaNota.Ru, забирай!