PrimaNota.ru - самый крупный в мире бесплатный архив песенных текстов, аккордов, табулатур и нот


Killswitch Engage - This Is Absolution - текст песни, таба, бас-таба, видео

Регистрация Запомнить меня
Войти через:  Facebook Google Twitter Vk Yandex Mail.ru

Killswitch Engage - This Is Absolution - текст песни, таба, бас-таба, видео

Печатать
Просмотров: 282
Killswitch Engage
This Is Absolution
As Daylight Dies (2006)
Tabbed by; Carlson2000
Tuning; Drop-C (CGCFAD)

Note; Probably about 75% right. Just the basics so you can play it!

------------|
------------|
-5-----7----|
-5--5--7--0-|
-3--5--5--0-|
----5-----0-|

------------------------------------------------------------------------|
------------------------------------------------------------------------|
------------------------------------------------------------------------|
----------------------------------------------------------7-5-4-5-4-2-0-|
----------------------------5p2--------------------------5--------------|
-0h2222222h5p2222222222224h5----0h2222222h5p222222222222----------------|

------------------------------------------------------------------------|
------------------------------------------------------------------------|
------------------------------------------------------------------------|
----------------------------------------------------------7-5-4-5-4-2-0-|
----------------------------5p2--------------------------5--------------|
-0h2222222h5p2222222222224h5----0h2222222h5p222222222222----------------|

----------------------------------------------------------------------------------|
----------------------------------------------------------------------------------|
----------------------------------------------------------------------------------|
-000-222222222-55545--000-222222222-54-0--000-222222222-55545--000-222222222-54-0-|
-000-222222222-55545--000-222222222-54-0--000-222222222-55545--000-222222222-54-0-|
-000-222222222-55545--000-222222222-54-0--000-222222222-55545--000-222222222-54-0-|
  ..  .. .. ..  ..     ..  .. .. ..        ..  .. .. ..  ..     ..  .. .. ..

------------|
------------|
-5-----7----|
-5--5--7--0-|
-3--5--5--0-|
----5-----0-|

-----------------------------------------------------------------------------------------------|
-----------------------------------------------------------------------------------------------|
-------------------------------------------------------------------------------------4-5-4-2---|
-000--2-22-22-2--5-45--000--2-22-22-22--54-0--000--2-22-22-2--5-45--000--2-22-22-2-----------5-|
-000--2-22-22-2--5-45--000--2-22-22-22--54-0--000--2-22-22-2--5-45--000--2-22-22-2--3----------|
-000--2-22-22-2--5-45--000--2-22-22-22--54-0--000--2-22-22-2--5-45--000--2-22-22-2-------------|
  ..    .. .. .         ..    .. .. ..         ..    .. .. .         ..    .. .. .

---------------------------------------------------------------------|
---------------------------------------------------------------------|
-555-55-5/777-77-77------------555--555-55-5/777-77-77------------55-|
-555-55-5/777-77-77-000h22-22--555--555-55-5/777-77-77-000h22-22--55-|
-333-33-3/555-55-55-000h22-22--333--333-33-3/555-55-55-000h22-22--33-|
--------------------000h22-22--------------------------000h22-22-----|

------------------------------------|
------------------------------------|
-5--------5--------5--5--------5----|
-5--0--2--5--0--2--5--5--0--2--5--0-|
-3--0--2--3--0--2--3--3--0--2--3--0-|
----0--2-----0--2--------0--2-----0-|
 .  .  .  .  .  .  .  .  .  .  .  .

------------------------------------------------------------------------|
------------------------------------------------------------------------|
------------------------------------------------------------------------|
----------------------------------------------------------7-5-4-5-4-2-0-|
----------------------------5p2--------------------------5--------------|
-0h2222222h5p2222222222224h5----0h2222222h5p222222222222----------------|

------------------------------------------------------------------------|
------------------------------------------------------------------------|
------------------------------------------------------------------------|
----------------------------------------------------------7-5-4-5-4-2-0-|
----------------------------5p2--------------------------5--------------|
-0h2222222h5p2222222222224h5----0h2222222h5p222222222222----------------|

------------------------------------------------------------------------------------|
------------------------------------------------------------------------------------|
------------------------------------------------------------------------------------|
-000-222222222-55545--000-222222222-54-0--000-222222222-55545--000-222222222-545420-|
-000-222222222-55545--000-222222222-54-0--000-222222222-55545--000-222222222--------|
-000-222222222-55545--000-222222222-54-0--000-222222222-55545--000-222222222--------|
  ..  .. .. ..  ..     ..  .. .. ..        ..  .. .. ..  ..     ..  .. .. ..

---------------------------------------------------------------------|
---------------------------------------------------------------------|
-555-55-5/777-77-77------------555--555-55-5/777-77-77------------55-|
-555-55-5/777-77-77-000h22-22--555--555-55-5/777-77-77-000h22-22--55-|
-333-33-3/555-55-55-000h22-22--333--333-33-3/555-55-55-000h22-22--33-|
--------------------000h22-22--------------------------000h22-22-----|

------------------------------------|
------------------------------------|
-5--------5--------5--5--------5----|
-5--0--2--5--0--2--5--5--0--2--5--0-|
-3--0--2--3--0--2--3--3--0--2--3--0-|
----0--2-----0--2--------0--2-----0-|
 .  .  .  .  .  .  .  .  .  .  .  .

----------------------------------------------------------------------------------------------------|
----------------------------------------------------------------------------------------------------|
--------------------------------------------------555555555555555555555555--------------------------|
-22222222222222222222222-000000000000000000000000-555555555555555555555555-000000000000000000000000-|
-22222222222222222222222-000000000000000000000000-333333333333333333333333-000000000000000000000000-|
-222222222h5p2h4p2h5ph4p-000000000h5p0h4p0h5p0h4p----------h5p0h4p0h5p0h4p-000000000h5p0h4p0h5p0h4p-|
 ....................... ........................ ........................ ........................

----------------------------------------------------------------------------------------------------|
----------------------------------------------------------------------------------------------------|
--------------------------------------------------555555555555555555555555--------------------------|
-22222222222222222222222-000000000000000000000000-555555555555555555555555-000000000000000000000000-|
-22222222222222222222222-000000000000000000000000-333333333333333333333333-000000000000000000000000-|
-222222222h5p2h4p2h5ph4p-000000000h5p0h4p0h5p0h4p----------h5p0h4p0h5p0h4p-000000000h5p0h4p0h5p0h4p-|
 ....................... ........................ ........................ ........................

then

guitar 1
----------------------------------------------------------------------------------------------------|
----------------------------------------------------------------------------------------------------|
--------------------------------------------------555555555555555555555555--------------------------|
-22222222222222222222222-000000000000000000000000-555555555555555555555555-000000000000000000000000-|
-22222222222222222222222-000000000000000000000000-333333333333333333333333-000000000000000000000000-|
-222222222h5p2h4p2h5ph4p-000000000h5p0h4p0h5p0h4p----------h5p0h4p0h5p0h4p-000000000h5p0h4p0h5p0h4p-|
 ....................... ........................ ........................ ........................

guitar 2
----------------------------------------------------------------------------------------------------|
----------------------------------------------------------------------------------------------------|
--7-7-7-7---2-2--4-4-------7-7-7-7---2-2--4-4-------7-7-7-7---2-2--4-4-------7-7-7-7---2-2--4-4-----|
---5-5-5-5---4-4--5-5-------5-5-5-5---4-4--5-5-------5-5-5-5---4-4--5-5-------5-5-5-5---4-4--5-5----|
----------------------------------------------------------------------------------------------------|
----------------------------------------------------------------------------------------------------|


guitar 1
----------------------------------------------------------------------------------------------------|
----------------------------------------------------------------------------------------------------|
--------------------------------------------------555555555555555555555555--------------------------|
-22222222222222222222222-000000000000000000000000-555555555555555555555555-000000000000000000000000-|
-22222222222222222222222-000000000000000000000000-333333333333333333333333-000000000000000000000000-|
-222222222h5p2h4p2h5ph4p-000000000h5p0h4p0h5p0h4p----------h5p0h4p0h5p0h4p-000000000h5p0h4p0h5p0h4p-|
 ....................... ........................ ........................ ........................

guitar 2
----------------------------------------------------------------------------------------------------|
----------------------------------------------------------------------------------------------------|
--7-7-7-7---2-2--4-4-------7-7-7-7---2-2--4-4-------7-7-7-7---2-2--4-4-------7-7-7-7---2-2--4-4-----|
---5-5-5-5---4-4--5-5-------5-5-5-5---4-4--5-5-------5-5-5-5---4-4--5-5-------5-5-5-5---4-4--5-5----|
----------------------------------------------------------------------------------------------------|
----------------------------------------------------------------------------------------------------|

and then

---------------------------------------------------------------------|
---------------------------------------------------------------------|
-555-55-5/777-77-77------------555--555-55-5/777-77-77------------55-|
-555-55-5/777-77-77-000h22-22--555--555-55-5/777-77-77-000h22-22--55-|
-333-33-3/555-55-55-000h22-22--333--333-33-3/555-55-55-000h22-22--33-|
--------------------000h22-22--------------------------000h22-22-----|

---------------------------------------------------------|
---------------------------------------------------------|
-5--------5--------5--5--------5-------5~------5~--------|
-5--0--2--5--0--2--5--5--0--2--5--0----5~--0---5~---0~~~-|
-3--0--2--3--0--2--3--3--0--2--3--0----3~--0---3~---0~~~-|
----0--2-----0--2--------0--2-----0--------0--------0~~~-|
 .  .  .  .  .  .  .  .  .  .  .  .
Добавлено: 31.03.2012
Другие материалы по этой песне:

Страница создана 13.03.2012
http://primanota.ru/killswitch-engage/this-is-absolution-chords.htm
Привет, Гость.
Предлагаем пройти революционный курс по гитаре.
Подарок от PrimaNota.Ru, забирай!