PrimaNota.ru - самый крупный в мире бесплатный архив песенных текстов, аккордов, табулатур и нот


Killswitch Engage - You Dont Bleed For Me - таба, видео

Регистрация Запомнить меня
Войти через:  Facebook Google Twitter Vk Yandex Mail.ru

Killswitch Engage - You Dont Bleed For Me - таба, видео

Печатать
Просмотров: 171
Drop C

                    
Palm mute = .
Slide or hammer on = \

----------------------------------------------------------------------------

Guitar 1                        Part 1


D|-------------------------------------------------------------------------|
A|-------------------------------------------------------------------------|
F|--8--x12-----------------------------------------------------------------|
C|--7---------7--7--7--7--7/9--11------------------------------------------|
G|--7---------7--7--7--7--7/9--11------------------------------------------|
C|--7---------7--7--7--7--7/9--11------------------------------------------|
              .  .  .  .

Part 2 x4

D|-------------------------------------------------------------------------|
A|-------------------------------------------------------------------------|
F|-------------------------------------------------------------------------|
C|--11--11--11--11--11--11--7--7--7--7--9--9--9--7-------------------------|
G|--11--11--11--11--11--11--7--7--7--7--9--9--9--7-------------------------|
C|--11--11--11--11--11--11--7--7--7--7--9--9--9--7-------------------------|
    .   .   .   .   .   .   .  .  .  .  .  .  .


D|-------------------------------------------------------------------------|
A|-------------------------------------------------------------------------|
F|-------------------------------------------------------------------------|
C|--7-7-7--7-7-7--7-7-7--7-7-7--7-7-7--7-7-7/9--11-------------------------|
G|--7-7-7--7-7-7--7-7-7--7-7-7--7-7-7--7-7-7/9--11-------------------------|
C|--7-7-7--7-7-7--7-7-7--7-7-7--7-7-7--7-7-7/9--11-------------------------|
    . . .  . . .  . . .  . . .  . . .  . . 

Part 3 x 2

D|----0-----------------0----------------4-------0-------------------------|
A|-----0-----------------0----------------5--------------------------------|
F|-------------------------------------------------------------------------|
C|-\6-----2--2--2-2--\6-----2--2--2-2--4-----4\6---6-7--7--7--7--7--7------|
G|-\4-----0--0--0-0--\4-----0--0--0-0--4-----4\6---6-7--7--7--7--7--7------|
C|-------------------------------------4-----4\6---6-7--7--7--7--7--7------|

Peice 3.5

D|----------------------------|
A|----------------------------|
F|----------------------------|
C|---7--7--7--7--7/9--11------|
G|---7--7--7--7--7/9--11------|
C|---7--7--7--7--7/9--11------|
     .  .  .  .  

Part 4 x2

D|-------------------------------------------------------------------------|
A|-------------------------------------------------------------------------|
F|-------------------------------------------------------------------------|
C|--11--11--11--11--11--11--7--7--7--7--9--9--9--7-------------------------|
G|--11--11--11--11--11--11--7--7--7--7--9--9--9--7-------------------------|
C|--11--11--11--11--11--11--7--7--7--7--9--9--9--7-------------------------|
    .   .   .   .   .   .   .  .  .  .  .  .  .


D|-------------------------------------------------------------------------|
A|-------------------------------------------------------------------------|
F|-------------------------------------------------------------------------|
C|--7-7-7--7-7-7--7-7-7--7-7-7--7-7-7--7-7-7/9--11-------------------------|
G|--7-7-7--7-7-7--7-7-7--7-7-7--7-7-7--7-7-7/9--11-------------------------|
C|--7-7-7--7-7-7--7-7-7--7-7-7--7-7-7--7-7-7/9--11-------------------------|
    . . .  . . .  . . .  . . .  . . .  . . 

Part 5 
D|-------------------------------------------------------------------------|
A|--5\4-------4-5\4-------4--7\4-5\4-5\4-------4-5\4-------4\4-7\4-5\4-5\4-|
F|------6---6-------6---6----------------6---6-------6---6-----------------|
C|--------6-----------6--------------------7-----------7-------------------|
G|-------------------------------------------------------------------------|
C|-------------------------------------------------------------------------|

D|-----------------------------------7-------------------------------------|
A|--5\4-------4-5\4-------4-7-4-4-5----5-5--5--5--5------------------------|
F|------6---6-------6---6--------------------------------------------------|
C|--------6-----------6-----------------------------------------------11\0-|
G|--------------------------------------------------------------------11\0-|
C|--------------------------------------------------------------------11\0-|

Part 6

D|----0-----------------0----------------4-------0-------------------------|
A|-----0-----------------0----------------5--------------------------------|
F|-------------------------------------------------------------------------|
C|-\6-----2--2--2-2--\6-----2--2--2-2--4-----4\6---6-7--7--7--7--7--9------|
G|-\4-----0--0--0-0--\4-----0--0--0-0--4-----4\6---6-7--7--7--7--7--9------|
C|-------------------------------------4-----4\6---6-7--7--7--7--7--9------|

D|----0-----------------0----------------4-------0------------------------|
A|-----0-----------------0----------------5-------------------------------|
F|------------------------------------------------------------------------|
C|-\6-----2--2--2-2--\6-----2--2--2-2--4-----4\6---6-7--7--7--7--7--------|
G|-\4-----0--0--0-0--\4-----0--0--0-0--4-----4\6---6-7--7--7--7--7--------|
C|-------------------------------------4-----4\6---6-7--7--7--7--7--------|

Part 7 x 8

D|---------------------------------------|
A|---------------------------------------|
F|---------------------------------------|
C|--------6--------6--------6-------6^---|
G|--4--4-----0--0-----2--2---------------|
C|-----------------------------2--2------|

Part 8 x 2

D|-------------------------------------------------------------------------|
A|-------------------------------------------------------------------------|
F|-------------------------------------------------------------------------|
C|-6-6-6-6-6-6-6-6-6--7\0-6\0-4\0--7-7-7-7-7-7-7-7-7--7\0-6\0-7\0----------|
G|-6-6-6-6-6-6-6-6-6---------------7-7-7-7-7-7-7-7-7-----------------------|
C|-6-6-6-6-6-6-6-6-6---------------7-7-7-7-7-7-7-7-7-----------------------|


D|-------------------------------------------------------------------------|
A|-------------------------------------------------------------------------|
F|-------------------------------------------------------------------------|
C|--4--4--4--4--4--4--4--4--6--6--6--6--7--7--7--7--7--7--9--9--9--9--9--9-|
G|--4--4--4--4--4--4--4--4--6--6--6--6--7--7--7--7--7--7--9--9--9--9--9--9-|
C|--4--4--4--4--4--4--4--4--6--6--6--6--7--7--7--7--7--7--9--9--9--9--9--9-|
       .  .     .  .     .     .     .     .  .     .  .     .  .     .  .

Part 9 x 2

D|------------------------------------|
A|------------------------------------|
F|--13-x20--14-x10---13-x5--11--x5----|
C|------------------------------------|
G|--11------12-------11-----9---------|
C|------------------------------------|


Part 10

D|----0-----------------0----------------4-------0-------------------------|
A|-----0-----------------0----------------5--------------------------------|
F|-------------------------------------------------------------------------|
C|-\6-----2--2--2-2--\6-----2--2--2-2--4-----4\6---6-7--7--7--7--7--9------|
G|-\4-----0--0--0-0--\4-----0--0--0-0--4-----4\6---6-7--7--7--7--7--9------|
C|-------------------------------------4-----4\6---6-7--7--7--7--7--9------|

D|----0-----------------0----------------4-------0------------------------|
A|-----0-----------------0----------------5-------------------------------|
F|------------------------------------------------------------------------|
C|-\6-----2--2--2-2--\6-----2--2--2-2--4-----4\6---6-7--7--7--7--7--------|
G|-\4-----0--0--0-0--\4-----0--0--0-0--4-----4\6---6-7--7--7--7--7--------|
C|-------------------------------------4-----4\6---6-7--7--7--7--7--------|
Добавлено: 16.10.2013
Другие материалы по этой песне:
  • Аккорды и текст

Страница создана 16.10.2013
http://primanota.ru/killswitch-engage/you-dont-bleed-for-me-chords.htm
Привет, Гость.
Предлагаем пройти революционный курс по гитаре.
Подарок от PrimaNota.Ru, забирай!