PrimaNota.ru - самый крупный в мире бесплатный архив песенных текстов, аккордов, табулатур и нот


Kataklysm - At The Edge Of The World - таба, видео

Регистрация Запомнить меня
Войти через:  Facebook Google Twitter Vk Yandex Mail.ru

Kataklysm - At The Edge Of The World - таба, видео

Печатать
Просмотров: 93
-------------------------------------------------------------------------------
                     At The Edge Of The World - Kataklysm
-------------------------------------------------------------------------------

Tuning: B E A D F# B

Intro (2x)
b||----------------------------------------------------------------------------|
F#|----------------------------------------------------------------------------|
D||----------------------------------------------------------------------------|
A||---------------------------------------------------------7------------------|
E||-7-------------7---9-------------9---10-------------10-------10---9----10---|
B||---0-0-0-0-0-0---0---0-0-0-0-0-0---0----0-0-0-0-0-0----0---0----0---0-----0-|
      . . . . . .   .   . . . . . .   .    . . . . . .    .   .    .   .     .

b||-------------------------------------------------------------------|
F#|-------------------------------------------------------------------|
D||-------------------------------------------------------------------|
A||-----------9---7-----------7---------------------------------------|
E||-------------------------------10-----------10---9---10---9--------|
B||-8-8-8-8-8---8---8-8-8-8-8---8----8-8-8-8-8----8---8----8---8--10--|
      . . . .   .   . . . . .   .    . . . . .    .   .    .   .

Verse (1x)
Base
b||--------------|-----------|-----------------|-5------------------|
F#|-10-----------|-8---------|-11--------------|-x------------------|
D||-9------------|-7---------|-10--------------|-5------------------|
A||-7------------|-5---------|-8---------------|-3------------------|
E||--------------|-----------|-----------------|--------------------|
B||--------------|-----------|-----------------|--------------------|
Solo
b||--------------|-----------|-----------------|--------------------|
F#|--------------|------3----|-----------------|-------10-13-10-----|
D||-------9------|-----4-4-4-|-------10--------|-10--10--------10---|
A||-7-7-10-10-7--|----5---5--|-8-8-12--12-8-12-|---10------------10-|
E||--7---------7-|-----------|--8--------------|--------------------|
B||--------------|-3-3-------|-----------------|--------------------|

Base
b||--------------|-----------|-----------------|--------------|
F#|-10-----------|-8---------|-11--------------|-9------------|
D||-9------------|-7---------|-10--------------|-8------------|
A||-7------------|-5---------|-8---------------|-6------------|
E||--------------|-----------|-----------------|--------------|
B||--------------|-----------|-----------------|--------------|
Solo
b||--------------|-----------|-----------------|--------------|
F#|--------------|------3----|-----------------|-----8-10-8---|
D||-------9------|-----4-4-4-|-------10--------|-8--8------8--|
A||-7-7-10-10-7--|----5---5--|-8-8-12--12-8-12-|--11--------9-|
E||--7---------7-|-----------|--8--------------|--------------|
B||--------------|-3-3-------|-----------------|--------------|

Intro (2x)

Pre-Chorus (2x)
b||-------------|-------------|-------------|-------------|
F#|-------------|-------------|-------------|-------------|
D||-------------|-------------|-------------|-------------|
A||-------2-----|-------------|-------2-----|----5-----7--|
E||----2-----2--|----5-----7--|----2-----2--|-3-----5-----|
B||-0-----------|-3-----5-----|-0-----------|-------------|

Chorus (4x)
b||-------------|-------------|-------------|-------------|
F#|-------------|-------------|-------------|-------------|
D||-9--------10-|-9-----------|-9--------10-|-9----12--10-|
A||-------------|----12-10-12-|-------------|---12--------|
E||-------------|-------------|-------------|-------------|
B||-------------|-------------|-------------|-------------|

Intro (2x)

Verse (2x)

Bridge (3x)
b||-------------------------------------------------------------|
F#|-------------------------------------------------------------|
D||-------------------------------------------------------------|
A||-3--2--2-----------------------3--2--2-----------------------|
E||-3--2--2-----------------------3--2--2--------------5\3------|
B||-1--0--0--0-0-0-0-0-0-0-0-0-0--1--0--0--0-0-0-0-0-0-3\1-0-0--|
             . . . . . . . . . .           . . . . . .     . .

b||-------------------------------------------------------------|
F#|-------------------------------------------------------------|
D||-------------------------------------------------------------|
A||-3--2--2-----------------------3--2--2----------2------------|
E||-3--2--2-----------------------3--2--2--------2---2---3--2---|
B||-1--0--0--0-0-0-0-0-0-0-0-0-0--1--0--0--0-0-3-------3------3-|
             . . . . . . . . . .           . .

Pre-Chorus (2x)

Chorus (4x)

Riff 1 (8x)
b||-------------------------|
F#|-------------------------|
D||-------------------------|
A||-------------------------|
E||-2--2--2--2--2--2--2--2--|
B||-0--0--0--0--0--0--0--0--|
    .  .  .  .  .  .  .  .

End (6x)
b||-------------------------|-----------------|
F#|-------------------------|-----------------|
D||-------------------------|-----------------|
A||-2-----------------------|-2--2----2--2----|
E||-2-----------------------|-2--2----2--2----|
B||-0--0--0--0--0--0--0--0--|-0--0----0--0----|
       .  .  .  .  .  .  .

b||-------------------------|------------------|
F#|-------------------------|------------------|
D||-------------------------|------------------|
A||-2-----------------------|-2--2----2--2--2--|
E||-2-----------------------|-2--2----2--2--2--|
B||-0--0--0--0--0--0--0--0--|-0--0----0--0--0--|
       .  .  .  .  .  .  .
Добавлено: 06.12.2015
Другие материалы по этой песне:

Страница создана 16.09.2013
http://primanota.ru/kataklysm/at-the-edge-of-the-world-chords.htm
Привет, Гость.
Предлагаем пройти революционный курс по гитаре.
Подарок от PrimaNota.Ru, забирай!