PrimaNota.ru - самый крупный в мире бесплатный архив песенных текстов, аккордов, табулатур и нот


Kataklysm - A View From Inside - текст песни, таба, видео

Регистрация Запомнить меня
Войти через:  Facebook Google Twitter Vk Yandex Mail.ru

Kataklysm - A View From Inside - текст песни, таба, видео

Печатать
Просмотров: 123
Band: Kataklysm
Album: Victims of this Fallen World
Song: A View From Inside

 
Code:
Suffixes for bend:
fb - full bend       hb - half bend
qb - quarter bend    t - tap bend
r - release bend

Suffixes for harmonic:
^ - pinched harmonic      n – natural harmonic

Suffixes for mute:
. – palm mute            x – staccato mute
, - light palm mute      ; - heavy palm mute

Other:
/ - slide up to            \ - slide down to       
h - hammer on              p - pull off
" - tremolo note           <> - Trill
* - see comment

Tuning B E A D F# B

Riff 1 (0:00) play 4 times
|------------------------------------------------------------------|
|------------------------------------------------------------------|
|------------------------------------------------------------------|
|------------------------------------------------------------------|
|-------------------------------------------------8888888877777777-|
|-555555555555555577777777777755778888888888888888-----------------|

Riff 2 (0:17) play twice
|-0-----------------------------------------------------|
|-1--------------8--------------------------------------|
|-0--------------7--------------------------------------|
|-2--------------9--------------3--------------5--------|
|-3-----------------------------3--------------5--------|
|----------000-0----------000-0-1--------000-0-3--------|
           ... .          ... .          ... .

Riff 3 (0:34) play 4 times
|----------------------------------------------|
|----------------------------------------------|
|----------------------------------------------|
|----------------------------------------------|
|-7--7777-5--7--7777-5--7--7777-5--7--5--3--5--|
|-5-------3--5-------3--5-------3--5--3--1--3--|
     nnnn       nnnn       nnnn
 
Riff 4a (0:52) play 4 times
|------------------------------------------------------------------|
|------------------------------------------------------------------|
|------------------------------------------------------------------|
|------------------------------------------------------------------|
|---------777777778888888888888888---------------------------------|
|-55555555------------------------66666666111111111111111111111111-|

Riff 4b (0:56) play 4 times
|------------------------------------------------------------------|
|------------------------------------------------------------------|
|------------------------------------------------------------------|
|------------------------------------------------------------------|
|---------777777778888888888888888---------------------------------|
|-55555555------------------------66666666111111113333333311111111-|

Riff 4a x 1 (1:01)
Riff 4b x 1 (1:05)
Riff 4a x 1 (1:09)
Riff 4b x 1 (1:13)
Riff 4a x 1 (1:18)
Riff 4b x 1 (1:22)
Riff 3 x 1 (1:26)
Riff 4a x 1 (1:44)
Riff 4b x 1 (1:48)
Riff 4a x 1 (1:52)
Riff 4b x 1 (1:57)
Riff 4a x 1 (2:01)
Riff 4b x 1 (2:06)
Riff 4a x 1 (2:10)
Riff 4b x 1 (2:14)
Riff 2 x 1 (2:18)

Fill 1 (2:35)
|--------------------------|
|--------------------------|
|-6------------------------|
|-7-------------\\\\\\\\\\-|
|-7--------------\\\\\\\\\-|
|-5--------------\\\\\\\\\-|

Riff 5a (2:40) play 4 times
|-----------------------------|
|-----------------------------|
|-----------------------------|
|-----------------------------|
|-2--2-5/7-7-7-2-2--2-5/8-8-8-|
|-0--0-3/5-5-5-0-0--0-3/6-6-6-|

Riff 5b (2:49) play twice
|-----------------------------------------------------|
|-----------------------------------------------------|
|---------------------555-7--------------------555-7--|
|-----------------------------------------------------|
|-2--2-5/7-7-7-2-2--2---------2--2-5/8-8-8-2-2--------|
|-0--0-3/5-5-5-0-0--0---------0--0-3/6-6-6-0-0--------|
                      nnn n                    nnn n

Riff 6 (2:58) play 8 times
|------------------|
|------------------|
|------------------|
|---------33335555-|
|-2222222211113333-|
|-00000000---------|

Riff 5a x 1 (3:11)
Riff 5b x 1 (3:21)
Riff 6 x 1 (3:30)
Riff 4a x 1 (3:43)
Riff 4b x 1 (3:47)
Riff 4a x 1 (3:52)
Riff 4b x 1 (3:56)
Riff 4a x 1 (4:00)
Riff 4b x 1 (4:05)
Riff 4a x 1 (4:09)
Riff 4b x 1 (4:13)

Fill 2 (4:18)
                        [x4]   [x1]
|--------------------------|-----|
|--------------------------|-----|
|--------------------------|-----|
|--------------------------|-----|
|-2---1---3----------------|-2---|
|-0---1---1----------------|-0---|
                              x

Riff 5a x 1 (4:32)
Riff 5b x 1 (4:42)
Riff 3 x 1 (4:51)

End (5:09)
|------|
|------|
|------|
|------|
|-7\\\-|
|-5\\\-|
Добавлено: 19.10.2013
Другие материалы по этой песне:
  • Аккорды и текст

Страница создана 01.07.2012
http://primanota.ru/kataklysm/a-view-from-inside-chords.htm
Привет, Гость.
Предлагаем пройти революционный курс по гитаре.
Подарок от PrimaNota.Ru, забирай!