PrimaNota.ru - самый крупный в мире бесплатный архив песенных текстов, аккордов, табулатур и нот


Kataklysm - (God) Head - текст песни, таба, видео

Регистрация Запомнить меня
Войти через:  Facebook Google Twitter Vk Yandex Mail.ru

Kataklysm - (God) Head - текст песни, таба, видео

Печатать
Просмотров: 141
Band: Kataklysm
Album: Victims of this Fallen World
Song: (God)Head


 
Code:
Suffixes for bend:
fb - full bend       hb - half bend
qb - quarter bend    t - tap bend
r - release bend

Suffixes for harmonic:
^ - pinched harmonic      n – natural harmonic

Suffixes for mute:
. – palm mute            x – staccato mute
, - light palm mute      ; - heavy palm mute

Other:
/ - slide up to            \ - slide down to       
h - hammer on              p - pull off
" - tremolo note           <> - Trill
* - see comment

Tuning B E A D F# B

Riff 1 (0:09) play 4 times
|------------------------------------------------------------------|
|------------------------------------------------------------------|
|-4444--------4444-------------------------------------------------|
|-----22225555----55552222----22224444------------5555----77774444-|
|-------------------------3333--------5555----5555----7777---------|
|-----------------------------------------7777---------------------|

Riff 2a (0:27) play 4 times
|--------------------|
|--------------------|
|--------------------|
|--------------------|
|-2-2-2-2---2-2------|
|-0-0-0-0---0-0------|
  . . . .   . .

Riff 2b (0:35) play 4 times
|-------------------------------|
|-------------------------------|
|-------------------------------|
|-------------------------------| gtr 1
|-------------------------------|
|-0-0-0-0---0-0-----------------|
  . . . .   . .

                              [*] play this part twice on last time
|----------|---------------------|
|----------|---------------------|
|----------|---------------------|
|----------|---------------------| gtr 2
|----------|---2---------------4-|
|-0-0-0-0--|-0---0-0-0-2-0-0-0---|
  . . . .    . . . . . . . . . .

Riff 2c (0:44) play 8 times
|-------------------------------|
|-------------------------------|
|-------------------------------|
|-------------------------------|
|-------------2---------------4-|
|-0-0-0-0---0---0-0-0-2-0-0-0---|
  . . . .   . . . . . . . . . .

Riff 3 (1:01) play twice
|----------------------------------|
|----------------------------------|
|-44444444555555554444444455555555-|
|-22222222222222223333333333333333-|
|----------------------------------|
|----------------------------------|

Riff 2c x 1/4 (1:05)
Riff 3 x 1 (1:09)
Riff 2c x 1/4 (1:13)

Riff 4 (1:18) play 6 times
|----------------------------------|
|----------------------------------|
|----------------------------------|
|----------------------------------|
|-22222266888855552222226688885533-|
|-00000044666633330000004466663311-|

Riff 5 (1:39) play 4 times
|----------------------------------|
|----------------------------------|
|----------------------------------|
|----------------------------------|
|-2-----6-8---5---2-----6-8---5-3--|
|-0-----4-6---3---0-----4-6---3-1--|

Riff 6 (1:52) play 12 times
|---------------------|
|---------------------|
|---------------------|
|---------------------|
|---2---------------4-|
|-0---0-0-0-2-0-0-0---|
  . . . . . . . . . .

Riff 7 (2:18) play 6 times
|-----------------------------------------------------------------|
|-----------------------------------------------------------------|
|-----------------------------------------------------------------|
|-----------------------------------------------------------------|
|-----------------------------8\7--------------------------3-5-6--|
|-0-0-0-0-1p0-0-0-4p0-0-0-0-0-6\5--0-0-0-0-1p0-0-0-4p0-0-0-1-3-4--|
  . . . .     . .     . . . .      . . . .     . .     . .

Riff 8 (2:39) play 8 times
|---------------------------|
|---------------------------|
|---------------------------|
|---------------------------|
|-------------3-5-6--3-5-6--|
|-0--0-1-0--0-1-3-4--1-3-4--|
  .  . . .  .

Riff 1 x 1 (2:56)

Riff 9 (3:14) play twice
|-----------------------------------------------------------------|
|-----------------------------------------------------------------|
|-----------------------------------------------------------------|
|-----------------------------------------------------------------|
|-----------------------------8\7----------------------------3/5--|
|-0-0-0-0-1p0-0-0-4p0-0-0-0-0-6\5--0-0-0-0-1p0-0-0-4p0-0-0-0-1/3--|
  . . . .     . .     . . . .      . . . .     . .     . .

Riff 8 x 1/2 (3:22)

Fill 1 (3:31) play 6 times
|----------------------------------|
|----------------------------------|
|----------------------------------|
|----------------------------------|
|-2-2--2-2-2--2-2--2--2--2--2--2---|
|-0-0--0-0-0--0-0--0--0--0--0--0---|
  . .  . . .  . .  .  .  .  .  .

Riff 10a (3:33)
|----------------------------------------------------------|
|----------------------------------------------------------|
|----------------------------------------------------------|
|---------------------------------12121212--------10101010-|
|-10101010000012121212000014141414--------12121212---------|
|----------------------------------------------------------|

Riff 10b (3:35)
|----------------------------------------------------------------|
|----------------------------------------------------------------|
|----------------------------------------------------------------|
|----------------------------------------------------------------|
|-101010100000121212120000-15p14p0---10p7p0---14p12p0---10p8p0---|
|----------------------------------0--------0---------0--------1-|

Riff 10a x 1 (3:37)
Riff 10b x 1 (3:38)
Riff 10a x 1 (3:40)
Riff 10b x 1 (3:42)
Riff 10a x 1 (3:44)
Riff 10b x 1 (3:45)
Riff 10a x 1 (3:47)
Riff 10b x 1 (3:48)
Riff 10a x 1 (3:50)
Riff 10b x 1 (3:52)
Riff 10a x 1 (3:54)
Riff 10b x 1 (3:55)
Riff 10a x 1 (3:57)
Riff 10b x 1 (3:59)
Riff 10a x 1 (3:57)
Riff 10b x 1 (3:59)
Riff 2b x 1 (4:00)
Riff 2c x 1 (4:10)
Riff 6 x 1 (4:26)
End (4:44)
Добавлено: 08.10.2013
Другие материалы по этой песне:
  • Аккорды и текст

Страница создана 27.05.2012
http://primanota.ru/kataklysm/god-head-chords.htm
Привет, Гость.
Предлагаем пройти революционный курс по гитаре.
Подарок от PrimaNota.Ru, забирай!