PrimaNota.ru - самый крупный в мире бесплатный архив песенных текстов, аккордов, табулатур и нот


Kataklysm - Embracing Europa - текст песни, таба, видео

Регистрация Запомнить меня
Войти через:  Facebook Google Twitter Vk Yandex Mail.ru

Kataklysm - Embracing Europa - текст песни, таба, видео

Печатать
Просмотров: 110
Уроки эстрадного вокала в Санкт-Петербурге
Band: Kataklysm
Album: Victims of this Fallen World
Song: Embracing Europa


 
Code:
Suffixes for bend:
fb - full bend       hb - half bend
qb - quarter bend    t - tap bend
r - release bend

Suffixes for harmonic:
^ - pinched harmonic      n – natural harmonic

Suffixes for mute:
. – palm mute            x – staccato mute
, - light palm mute      ; - heavy palm mute

Other:
/ - slide up to            \ - slide down to       
h - hammer on              p - pull off
" - tremolo note           <> - Trill
* - see comment

Tuning B E A D F# B

Intro A (0:00)
|------------------------------------|
|---------777777---------------------|
|-----4444--------------7777---------|
|-2222--------------5555--------4444-| gtr 1
|---------------3333--------2222-----|
|------------------------------------|

|------------------------------------|
|------------------------------------|
|------------------------------------|
|---------------5-5---------4--------| gtr 2
|-2-2-----------3-3---------2--------|
|-0-0--------------------------------|
  . .           . .         .

Intro B (0:03)
|------------------------------------|
|---------777777---------------------|
|-----4444--------------7777---------|
|-2222--------------5555----4444-----| gtr 1
|---------------3333------------2222-|
|------------------------------------|

|------------------------------------|
|------------------------------------|
|------------------------------------|
|---------------5-5---------4--------| gtr 2
|-2-2-----------3-3---------2--------|
|-0-0-----------3-3---------2--------|
  . .           . .         .

Intro A x 1 (0:05)
Intro B x 1 (0:08)

Riff 1a (0:10)
|----------------------------------|
|---------7777---------------------|
|-----4444------------7777---------|
|-2222------------5555--------4444-|
|-------------3333--------2222-----|
|----------------------------------|

Riff 1b (0:12)
|----------------------------------|
|---------7777---------------------|
|-----4444------------7777---------|
|-2222------------5555----4444-----|
|-------------3333------------2222-|
|----------------------------------|

Riff 1a x 1 (0:15)
Riff 1b x 1 (0:17)
Riff 1a x 1 (0:20)
Riff 1b x 1 (0:22)
Riff 1a x 1 (0:24)
Riff 1b x 1 (0:27)

Riff 2 (0:29) play 4 times
|------------------------------------------------------------------|
|------------------------------------------------------------------|
|-----------------------------------------------------4444---------|
|-22222222224455552222222222445555--------554455775577----77775555-|
|---------------------------------33333333-------------------------|
|------------------------------------------------------------------|

Riff 1a x 1 (0:49)
Riff 1b x 1 (0:51)
Riff 1a x 1 (0:53)
Riff 1b x 1 (0:56)

Riff 3 (0:58) play 4 times
                         [x8]
|-----------------|----------|-----------------|
|-----------------|----------|-----------------|
|-----------------|----------|-----------------|
|-----------------|----------|-----------------|
|-2--2----2--2----|-------3--|-2--2----2--2----|
|-0--0----0--0----|-0--0-----|-0--0----0--0----|
  .  .    .  .      .  .  n    .  .    .  .

Riff 3a (1:09)
|-------7-----------8------------10---------5---|
|-----------------------------------------------|
|-----9----------10-----------12----------7-----|
|---9---------10-----------12-----------7-------|
|-7---------8-----------10------------5---------|
|-----------------------------------------------|
 
Riff 3b (1:14)
|-------7-----------8------------10------------12---|
|---------------------------------------------------|
|-----9----------10-----------12------------14------|
|---9---------10-----------12------------14---------|
|-7---------8-----------10------------12------------|
|---------------------------------------------------|

Riff 3a x 1 (1:19)
Riff 3b x 1 (1:24)

Riff 4a (1:27)
|------------------------------------------------------------------|
|------------------------------------------------------------------|
|------------------------------------------------------------------|
|-----------------5-------5-----------------------3-3-2-2-3-3-2-2--|
|-3p2---------3p2-----------------3p2---------3p2------------------|
|-----0-0-0-0-------3-3-3---3-3-3-----0-0-0-0----------------------|
      . . . .       . . .   . . .     . . . .     . . . . . . . .

Riff 4b (1:32)
|------------------------------------------------------------------|
|------------------------------------------------------------------|
|------------------------------------------------------------------|
|-----------------5-------5-----------------------3-3-3-3-2-3-2----|
|-3p2---------3p2-----------------3p2---------3p2---------------5--|
|-----0-0-0-0-------3-3-3---3-3-3-----0-0-0-0----------------------|
      . . . .       . . .   . . .     . . . .     . . . . . . . .

Riff 4a x 1 (1:37)
Riff 4b x 1 (1:41)

Fill 1 (1:46)
|--------------------|
|--------------------|
|--------------------|
|--------------------|
|-2--2----2--2----2--|
|-0--0----0--0----0--|
      x       x

Intro A x 1 (1:48)
Riff 1a x 1 (1:51)
Riff 1b x 1 (1:53)
Riff 1a x 1 (1:55)
Riff 1b x 1 (1:58)
Riff 1a x 1 (2:00)
Riff 1b x 1 (2:02)
Riff 1a x 1 (2:04)
Riff 1b x 1 (2:07)
Riff 2 x 1 (2:09)


Fill 2 (2:29)
|-----|
|-----|
|-----|
|-9---|
|-7---|
|-----|
   x

Riff 3a x 1 (2:30)
Riff 3b x 1 (2:34)
Riff 3a x 1 (2:39)
Riff 3b x 1 (2:44)

Riff 5 (2:48) play 4 times
|------------------------------------------------------------------|
|------------------------------------------------------------------|
|------------------------------------------------------------------|
|-----------------5-5-4-4-5-5-4-4-----------------5-5-5-5-4-5-4-2--|
|-----------------3-3-2-2-3-3-2-2-----------------3-3-3-3-2-3-2-0--|
|-3p0-0-0-0-0-3p0-----------------3p0-0-0-0-0-3p0------------------|
      . . . .       . . .   . . .     . . . .     . . . . . . . .

Fill 3 (3:06)
|--------------|
|--------------|
|--------------|
|--------------|
|-2--2----2----|
|-0--0----0----|
      x    x

Riff 6 (3:08) play 8 times
|------------------------------------------------------------------|
|------------------------------------------------------------------|
|------------------------------------------------------------------|
|-555522225555222277773333777733335555222255552222333300002222-----|
|-------------------------------------------------------------3333-|
|------------------------------------------------------------------|

Riff 3 x 1 (3:22), continue to play Riff 6

End (3:35)
        [x4]     [x3]
|----------|--------|
|----------|--------|
|----------|--------|
|----------|--------|
|-2-2---3--|-2-2----|
|-0-0------|-0-0----|
  . .   n
Добавлено: 31.07.2013
Другие материалы по этой песне:
  • Аккорды и текст

Страница создана 05.06.2012
http://primanota.ru/kataklysm/embracing-europa-chords.htm
Привет, Гость.
Предлагаем пройти революционный курс по гитаре.
Подарок от PrimaNota.Ru, забирай!