PrimaNota.ru - самый крупный в мире бесплатный архив песенных текстов, аккордов, табулатур и нот


Kataklysm - Courage Through Hope - текст песни, таба, видео

Регистрация Запомнить меня
Войти через:  Facebook Google Twitter Vk Yandex Mail.ru

Kataklysm - Courage Through Hope - текст песни, таба, видео

Печатать
Просмотров: 115
Band: Kataklysm
Album: Victims of this Fallen World
Song: Courage Through Hope


 
Code:
Suffixes for bend:
fb - full bend       hb - half bend
qb - quarter bend    t - tap bend
r - release bend

Suffixes for harmonic:
^ - pinched harmonic      n – natural harmonic

Suffixes for mute:
. – palm mute            x – staccato mute
, - light palm mute      ; - heavy palm mute

Other:
/ - slide up to            \ - slide down to       
h - hammer on              p - pull off
" - tremolo note           <> - Trill
* - see comment

Tuning B E A D F# B

Intro A (0:00)
|-------------------------------------------------|
|-------------------------------------------------|
|-----------------------------------------4-------|
|--------------5--7--4--------------4--7-----2----| gtr 1
|-2-2-2--5--7--------5----2-2-2--5-----------3----|
|-0-0-0-------------------0-0-0-------------------|
  . .                     . .
|-------------------------------------------------|
|-------------------------------------------------|
|-------------------------------------------------|
|-------------------------------------------------| gtr 2
|-2-2-2-------------------2-2-2-------------------|
|-0-0-0-------------------0-0-0-------------------|
  . .                     . .

Intro B (0:05)
|----------------------------------------|
|----------------------------------------|
|----------------------------------------|
|--------------5--7--4-------------------| gtr 1
|-2-2-2--5--7--------5----3----5---3--5--|
|-0-0-0-------------------3----5---3--5--|
  . .
|----------------------------------------|
|----------------------------------------|
|----------------------------------------|
|----------------------------------------| gtr 2
|-2-2-2-------------------3----5---3--5--|
|-0-0-0-------------------3----5---3--5--|
  . .

Intro A x 1 (0:11)
Intro B x 1 (0:16)

Riff 1a (0:21)
|-------------------------------------------------|
|-------------------------------------------------|
|-----------------------------------------4-------|
|--------------5--7--4--------------4--7-----2----|
|-2-2-2--5--7--------5----2-2-2--5-----------3----|
|-0-0-0-------------------0-0-0-------------------|
  . .                     . .

Riff 1b (0:26)
|----------------------------------------|
|----------------------------------------|
|----------------------------------------|
|--------------5--7--4-------------------|
|-2-2-2--5--7--------5----3----5---3--5--|
|-0-0-0-------------------3----5---3--5--|

Riff 1a x 1 (0:31)
Riff 1b x 1 (0:36)

Riff 2a (0:41)
|---------------------------------------------------|
|---------------------------------------------------|
|-4----------------4--------------------------------|
|-5----------------5------4-------------------------|
|---------2---------------5-3-3-3-3-5-5-5-5-5-5-5-5-|
|-----0-0-0----0-0----0-0---3-3-3-3-5-5-5-5-5-5-5-5-|
      . .      . .    . .   . . . . . . . . . . . .
Riff 2b (0:47)
|---------------------------------------------------|
|---------------------------------------------------|
|-4----------------4--2-----------------------------|
|-5----------------5--4--4-------4-----5555----7777-|
|---------2--------------5---5-5-5-3333----5555-----|
|-----0-0-0----0-0----------------------------------|
      . .      . .           . .

Riff 2a x 1 (0:52)
Riff 2b x 1 (0:57)

Riff 3 (1:02) play 8 times
|----------------------------|
|----------------------------|
|----------------------------|
|----------------------------|
|-2------1-1-----4-4-5/7-7-7-|
|-0--0/1-1-1-1/4-4-4-5/7-7-7-|
         . .     . .     . .

Riff 2a x 1 (1:22)
Riff 2b x 1 (1:27)
Riff 2a x 1 (1:32)
Riff 2b x 1 (1:37)

Riff 4 (1:42) play twice

               [x8]
|-----------------|
|-----------------|
|-------------5---|
|---5-9---5-7---5-| gtr 1
|-7-----7---------|
|-----------------|

         {1}          {3}         {5}           {7}
|-----------|-----------|-----------|---------------|
|-----------|-----------|-----------|---------------|
|-----------|-----------|-----------|---------------|
|-----------|-----------|-7---------|-5----4--------| gtr 2
|-2---------|-5---------|-5---------|-3----2---2-3--|
|-0---------|-3---------|-----------|------------1--|
                                               .

Riff 5a (2:02)
|-------------------------------------------------------------|
|-------------------------------------------------------------|
|-------------------------------------------------------------|
|-------------222255557777-4----------------222255557777-2----|
|-----22225555-------------5--------22225555-------------3----|
|-0000--------------------------0000--------------------------|

Riff 5b (2:07)
|----------------------------------------------|
|----------------------------------------------|
|----------------------------------------------|
|-------------222255557777-4-------------------|
|-----22225555-------------5----3----5---3--5--|
|-0000--------------------------3----5---3--5--|

Riff 5a x 1 (2:11)
Riff 5b x 1 (2:16)

Riff 6 (2:20) play 4 times
|--------------------------------|
|--------------------------------|
|--------------------------------|
|--------------------------------|
|-2--0-0-0/1-1-1-1/4-4-4-5/7-7-7-|
|-0--0-0-0/1-1-1-1/4-4-4-5/7-7-7-|
     . .     . .     . .     . .

Riff 5a x 1 (2:30)
Riff 5b x 1 (2:35)
Riff 5a x 1 (2:39)
Riff 5b x 1 (2:44)

Riff 7 (2:49) play 4 times
|-----------------------------------------------|
|-----------------------------------------------|
|-----------------------------------------------|
|------------------------------------5----------|
|-------7-----8--5----7--------7--------3--5^~--|
|-000000---000-----000---000000---000-----------|

Riff 8 (3:08) play 4 times
|-------------------------------------------------|
|-------------------------------------------------|
|-------------------------------------------------|
|-----------------0-------------------------------|
|-0--0--2--2-2-3--0--2-2-2--0--0--2--2-2-5--3--5--|
|-0--0--0--0-0-1-----0-0-0--0--0--0--0-0-3--3--5--|
  .  .     . .       . .    .  .     . .

Riff 2a x 1 (3:26)
Riff 2b x 1 (3:31)
Riff 2a x 1 (3:36)
Riff 2b x 1 (3:42)
Intro A x 1 (3:47)
Intro B x 1 (3:52)
Intro A x 1 (3:58)
Intro B x 1 (4:03)

End (4:08)
|-----------------------------------------------|
|-----------------------------------------------|
|-----------------------------------------------|
|-9-9-9-----------------------------------------|
|-7-7-7-----------------------------------------|
|-7-7-7-----------------------------------------|
Добавлено: 10.11.2013
Другие материалы по этой песне:
  • Аккорды и текст

Страница создана 22.04.2012
http://primanota.ru/kataklysm/courage-through-hope-chords.htm
Привет, Гость.
Предлагаем пройти революционный курс по гитаре.
Подарок от PrimaNota.Ru, забирай!