PrimaNota.ru - самый крупный в мире бесплатный архив песенных текстов, аккордов, табулатур и нот


John Petrucci - Tunnel Vision - таба, видео

Регистрация Запомнить меня
Войти через:  Facebook Google Twitter Vk Yandex Mail.ru

John Petrucci - Tunnel Vision - таба, видео

Печатать
Просмотров: 199
-------------------------------------------------------------------------------
                             Tunnel Vision – John Petrucci
-------------------------------------------------------------------------------
Tabbed by: Tim Jones
Email: Timmjones@charter.net

Tuning: EDAGBe

Time 0:20
e|----------------------------|
B|------------5h7~--p5--------|
G|---4h5h8-------------8p5p4--|
D|----------------------------|
A|----------------------------|
E|----------------------------|

Time 0:44
(repeat x2)
e|-------------------------------------------------------------------------|
B|---0-0-16-17p0-0-10-12-0-7-10-0-0-16h17p16p13p0-h12p0-19p0-17p0-0-10-12--|
G|-------------------------------------------------------------------------|
D|-------------------------------------------------------------------------|
A|-------------------------------------------------------------------------|
E|-------------------------------------------------------------------------|

e|---------------------------------------------------------------------------|
B|---0-0-16-17p0-0-10-12-0-7-10---0-0-16h17p16p13p0-h12p0-19p0-17p0-0-22-24--|
G|---------------------------------------------------------------------------|
D|---------------------------------------------------------------------------|
A|---------------------------------------------------------------------------|
E|---------------------------------------------------------------------------|

Time 1:01
e|---------------------------------17------|
B|---16-17--16-17-19--16-17-----b10r9-9-7--|
G|-----------------------------------------|
D|-----------------------------------------|
A|-----------------------------------------|
E|-----------------------------------------|

e|-------------------------------------------------|
B|---16-17--16-17-16\12\10~--16-17-17\12-10-9/16~--|
G|-------------------------------------------------|
D|-------------------------------------------------|
A|-------------------------------------------------|
E|-------------------------------------------------|
Time 1:33
e|----------------------------------------------------------------------------------|
B|----------------------------------------------------------------------------------|
G|---9b10r9-7---9/11-7-9---------21b22r21-19-----21b24r21-19-21---------------------|
D|---------------9------------7-9~-------------------21---------------------19-21~--|
A|----------------------------------------------------------------------------------|
E|----------------------------------------------------------------------------------|

Time 1:53
e|----------------------------------------------------------------------|
B|---16-17--16-17-19-16-17-(21)b22-21-21-21-19-19-19-16-16-17-17-12-12--|
G|----------------------------------------------------------------------|
D|----------------------------------------------------------------------|
A|----------------------------------------------------------------------|
E|----------------------------------------------------------------------|

e|----------------------------------------------|
B|---14-14-10-10-12~--16-17-17\12-12/14\10-10~--|
G|----------------------------------------------|
D|----------------------------------------------|
A|----------------------------------------------|
E|----------------------------------------------|

e|------------19b21r19-17—21b22r21-b23b24r23b24r21-19~--|
B|---16-17----------------------------------------------|
G|------------------------------------------------------|
D|------------------------------------------------------|
A|------------------------------------------------------|
E|------------------------------------------------------|

Time 2:26
e|---------------------------------------------------------------------------|
B|---------------------------------------------------------------------------|
G|---21b22r21-19----21b24r21-19-21-------------------------------------------|
D|-------------------21---------------------19-21~-21-19-19------------------|
A|----------------------------------------------------------------21---------|
E|--------------------------------------------------------------------19-21--|

e|----------------------------------------------------------------------21~\--|
B|-----------------------------------------------------------------24---------|
G|---21b22r21-19----21b24r21-19-21-------------------23-----------------------|
D|-------------------21---------------------19-21~-21h24----------------------|
A|----------------------------------------------------------------------------|
E|----------------------------------------------------------------------------|


Time 2:42
e|----------------------------------------------------------------------------|
B|---0-0-13-15-0-13-15-0-2p0-3p0--0-0-10-12-0-10-12-0-2p0-3p0--0-0-7-8-0-7-8--|
G|----------------------------------------------------------------------------|
D|----------------------------------------------------------------------------|
A|----------------------------------------------------------------------------|
E|----------------------------------------------------------------------------|

e|---------------------------------------|
B|---0-2p0-3p0--0-0-5-7-0-5-7-0-2p0-3p0--|
G|---------------------------------------|
D|---------------------------------------|
A|---------------------------------------|
E|---------------------------------------|

Time 2:50
e|-------------------------------------------------------------------------------|
B|---0-0-13-15-0-13-15-0-2p0-3p0-0-0-17-19-0-17-19-0-2p0-3p0--0-0-10-12-0-10-12--|
G|-------------------------------------------------------------------------------|
D|-------------------------------------------------------------------------------|
A|-------------------------------------------------------------------------------|
E|-------------------------------------------------------------------------------|

e|--------------------------------------------|
B|---0-2p0-3p0-0-0-13-15-0-13-15-0-0-11-0-12--|
G|--------------------------------------------|
D|--------------------------------------------|
A|--------------------------------------------|
E|--------------------------------------------|

Time 2:58
e|----------------------------------------------------------------------------|
B|---0-0-17-19-0-17-19-0-2p0-3p0-0-0-22-24-0-22-24-0-2p0-3p0-0-0-10-12-10-12--|
G|----------------------------------------------------------------------------|
D|----------------------------------------------------------------------------|
A|----------------------------------------------------------------------------|
E|----------------------------------------------------------------------------|

e|------------------------------------------|
B|---0-2p0-3p0-0-0-13-15-0-13-15-0-2p0-3p0--|
G|------------------------------------------|
D|------------------------------------------|
A|------------------------------------------|
E|------------------------------------------|

Time 3:06
e|------------------------------------------------------------------------------|
B|---0-0-13-15-0-13-15-0-2p0-3p0-0-0-17-19-0-17-19-0-2p0-3p0-0-0-19-20-0-19-20--|
G|------------------------------------------------------------------------------|
D|------------------------------------------------------------------------------|
A|------------------------------------------------------------------------------|
E|------------------------------------------------------------------------------|

e|--------------------------------------------|
B|---0-2p0-3p0-0-0-22-24-0-13-15-0-0-11-0-12--|
G|--------------------------------------------|
D|--------------------------------------------|
A|--------------------------------------------|
E|--------------------------------------------|

| /  slide up
| \  slide down
| h  hammer-on
| p  pull-off
| ~  vibrato
| +  harmonic
| x  Mute note
===============================================================================
Добавлено: 29.05.2012
Другие материалы по этой песне:

Страница создана 21.02.2012
http://primanota.ru/john-petrucci/tunnel-vision-chords.htm
Привет, Гость.
Предлагаем пройти революционный курс по гитаре.
Подарок от PrimaNota.Ru, забирай!