PrimaNota.ru - самый крупный в мире бесплатный архив песенных текстов, аккордов, табулатур и нот


John Petrucci - Furia Taurina - таба, видео

Регистрация Запомнить меня
Войти через:  Facebook Google Twitter Vk Yandex Mail.ru

John Petrucci - Furia Taurina - таба, видео

Печатать
Просмотров: 268
Уроки эстрадного вокала в Санкт-Петербурге
Авторы музыки: John Petrucci, Jordan Rudess

Alright, I really love this song! I hope you do, too! It's definitely a difficult 
one to learn, but stick with it, learn the parts you're interested in first, and 
things will come together. Just remember to work on your sweeping chops before 
attempting!
This tab is courtesy of ReaperKK at PetrucciForum.com

E||--0----------------|--0----------------|--0----------------| 
B||--8----------------|--5----------------|--2----------------| 
G||--9----------------|--6----------------|--3----------------| 
D||--8----------------|--5----------------|--2----------------| 
A||--0----------------|--0----------------|--0----------------| 
E||-------------------|-------------------|-------------------| 



--0----------------|--0-----------------|--0----------------| 
--6----------------|--11----------------|--8----------------| 
--7----------------|--12----------------|--9----------------| 
--0----------------|--0-----------------|--0----------------| 
-------------------|--------------------|-------------------| 
-------------------|--------------------|-------------------| 



--0----------------|--0----------------|----------------------------------| 
--6----------------|--8----------------|--------8-----------8-----------8-| 
--7----------------|--9----------------|------9---9-------9---9-------9---| 
--0----------------|--8----------------|----8-------8---8-------8---8-----| 
-------------------|--0----------------|--0-----------0-----------0-------| 
-------------------|-------------------|----------------------------------| 



----------------------------------|----------------------------------| 
--------8-----------8-----------8-|--------8-----------8-----------8-| 
------9---9-------9---9-------9---|------9---9-------9---9-------9---| 
----8-------8---8-------8---8-----|----8-------8---8-------8---8-----| 
--0-----------0-----------0-------|--0-----------0-----------0-------| 
----------------------------------|----------------------------------| 



----------------------------------|----------------------------------| 
--------8-----------8-----------8-|--------8-----------8-----------8-| 
------9---9-------9---9-------9---|------9---9-------9---9-------9---| 
----8-------8---8-------8---8-----|----8-------8---8-------8---8-----| 
--0-----------0-----------0-------|--0-----------0-----------0-------| 
----------------------------------|----------------------------------| 



----------------------------------|----------------------------------| 
--------8-----------8-----------8-|--------8-----------8-----------8-| 
------9---9-------9---9-------9---|------9---9-------9---9-------9---| 
----8-------8---8-------8---8-----|----8-------8---8-------8---8-----| 
--0-----------0-----------0-------|--0-----------0-----------0-------| 
----------------------------------|----------------------------------| 



----------------------------------|------------------------------| 
--------8-----------8-----------8-|------------------------------| 
------9---9-------9---9-------9---|--6--7---6--7---6--7---6--7---| 
----8-------8---8-------8---8-----|--7--8---7--8---7--8---7--8---| 
--0-----------0-----------0-------|------------------------------| 
----------------------------------|------------------------------| 



------------------------------|------------|-------------------------------| 
------------------------------|------------|-------------------------------| 
-6--7---6--7---6--7---6--7--6-|--7-9-7-6---|--6--7---6--7---6--7---6--7--6-| 
-7--8---7--8---7--8---7--8----|----------8-|--7--8---7--8---7--8---7--8----| 
------------------------------|------------|-------------------------------| 
------------------------------|------------|-------------------------------| 



--------------------|-------------------------------|------------| 
------6-------------|-------------------------------|------------| 
--7-9---9-7-6-7-6---|--6--7---6--7---6--7---6--7--6-|--7-9-7-6---| 
------------------8-|--7--8---7--8---7--8---7--8----|----------8-| 
--------------------|-------------------------------|------------| 
--------------------|-------------------------------|------------| 



-------------------------------|----------------------| 
-------------------------------|------6---------------| 
--6--7---6--7---6--7---6--7--6-|--7-9---9-7-6-7-6-----| 
--7--8---7--8---7--8---7--8----|------------------8-7-| 
-------------------------------|----------------------| 
-------------------------------|----------------------| 



------------------------------------|--------------------------------------| 
------------------------------------|--------------------------------------| 
-------5-4------3-2-----------------|---------5-4------3-2-----------------| 
0--7---------5--------2--5--3-----2-|--0--7---------5--------2--5--3-----2-| 
-------------------------------4----|---------------------------------4----| 
------------------------------------|--------------------------------------| 



------------------------------------|--------------------------------------| 
------------------------------------|--------------------------------------| 
-------5-4------3-2-----------------|---------5-4------3-2-----------------| 
0--7---------5--------2--5--3-----2-|--0--7---------5--------2--5--3-----2-| 
-------------------------------4----|---------------------------------4----| 
------------------------------------|--------------------------------------| 



--3---3---5----5--5--5--|--5---5---6----6--6--6--|----------5----5--5--5--| 
--3---3---5----5--5--5--|--6---6---6----6--6--6--|--8---8---5----5--5--5--| 
--3---3---6----6--6--6--|--7---7---7----7--7--7--|--7---7---6----6--6--6--| 
--5---5---7----7--7--7--|--7---7---8----8--8--8--|--6---6---7----7--7--7--| 
--5---5---7----7--7--7--|--5---5---8----8--8--8--|--7---7---7----7--7--7--| 
--3---3---5----5--5--5--|----------6----6--6--6--|--0---0---5----5--5--5--| 



--5---5---5----5----5--|--3---3---5----5--5--5--|--5---5---6----6--6--6--| 
--6---6---6----6----6--|--3---3---5----5--5--5--|--6---6---6----6--6--6--| 
--7---7---7----7----7--|--3---3---6----6--6--6--|--7---7---7----7--7--7--| 
--7---7---7----7----7--|--5---5---7----7--7--7--|--7---7---8----8--8--8--| 
--5---5---5----5----5--|--5---5---7----7--7--7--|--5---5---8----8--8--8--| 
-----------------------|--3---3---5----5--5--5--|----------6----6--6--6--| 



----------5----5--5--5--|--------------------------------------------| 
--8---8---5----5--5--5--|--------------------------------------------| 
--7---7---6----6--6--6--|--7-7-7/9-9-9/10-10-10/12-12/14-14-14-14-14-| 
--6---6---7----7--7--7--|--------------------------------------------| 
--7---7---7----7--7--7--|--5-5-5/7-7-7/8--8--8/-10-10/12-12-12-12-12-| 
--0---0---5----5--5--5--|--------------------------------------------| 



--3---3---5----5--5--5--|--5---5---5----5--5--5--|--6---6-----------------| 
--3---3---5----5--5--5--|--6---6---6----6--6--6--|--6---6---8----8--8--8--| 
--3---3---6----6--6--6--|--7---7---7----7--7--7--|--7---7---7----7--7--7--| 
--5---5---7----7--7--7--|--7---7---0----0--0--0--|--8---8---6----6--6--6--| 
--5---5---7----7--7--7--|--5---5-----------------|--8---8---7----7--7--7--| 
--3---3---5----5--5--5--|----------7----7--7--7--|--6---6---0----0--0--0--| 



--6-6-x-6-x-x-6--5--------|--------------------------------------| 
--6-6-x-6-x-x-6--5--------|--------------------------------------| 
--7-7-x-7-x-x-7--6--------|---------5-4------3-2-----------------| 
--8-8-x-8-x-x-8--7--------|--0--7---------5--------2--5--3-----2-| 
--8-8-x-8-x-x-8--7--------|---------------------------------4----| 
--6-6-x-6-x-x-6--5--------|--------------------------------------| 



------------------------------------|--------------------------------------| 
------------------------------------|--------------------------------------| 
-------5-4------3-2-----------------|---------5-4------3-2-----------------| 
0--7---------5--------2--5--3-----2-|--0--7---------5--------2--5--3-----2-| 
-------------------------------4----|---------------------------------4----| 
------------------------------------|--------------------------------------|

--------------------------------------|-------------------------------| 
--------------------------------------|-------------------------------| 
---------5-4------3-2-----------------|--6--7---6--7---6--7---6--7--6-| 
--0--7---------5--------2--5--3-----2-|--7--8---7--8---7--8---7--8----| 
---------------------------------4----|-------------------------------| 
--------------------------------------|-------------------------------| 



------------|-------------------------------|--------------------| 
------------|-------------------------------|------6-------------| 
--7-9-7-6---|--6--7---6--7---6--7---6--7--6-|--7-9---9-7-6-7-6---| 
----------8-|--7--8---7--8---7--8---7--8----|------------------8-| 
------------|-------------------------------|--------------------| 
------------|-------------------------------|--------------------| 



------------------------------|------------|-------------------------------| 
------------------------------|------------|-------------------------------| 
-6--7---6--7---6--7---6--7--6-|--7-9-7-6---|--6--7---6--7---6--7---6--7--6-| 
-7--8---7--8---7--8---7--8----|----------8-|--7--8---7--8---7--8---7--8----| 
------------------------------|------------|-------------------------------| 
------------------------------|------------|-------------------------------| 



----------------------||---0----------------|------------------| 
------6---------------||---2----------------|------------------| 
--7-9---9-7-6-7-6-----||*--2----------------|------------------| 
------------------8-7-||*--2----------------|------------------| 
----------------------||---0----------------|------------------| 
----------------------||--------------------|------------------| 



--0----------------|-------------------|| 
--3----------------|-------------------|| 
--2----------------|------------------*|| 
--3----------------|------------------*|| 
--0----------------|-------------------|| 
-------------------|-------------------|| 



--12-x-x-12-x-x-12-x-x-12-x-x-12-12-x-x-| 
----------------------------------------| 
--9--x-x-9--x-x-9--x-x-9--x-x-9--9--x-x-| 
----------------------------------------| 
----------------------------------------| 
----------------------------------------| 



--12-x-x-12-x-x-12-x-x-12-x-x-12-12-x-x-| 
----------------------------------------| 
--9--x-x-9--x-x-9--x-x-9--x-x-9--9--x-x-| 
----------------------------------------| 
----------------------------------------| 
----------------------------------------| 



--12-x-x-12-x-x-12-x-x-12-x-x-12-12-x-x-| 
----------------------------------------| 
--9--x-x-9--x-x-9--x-x-9--x-x-9--9--x-x-| 
----------------------------------------| 
----------------------------------------| 
----------------------------------------| 



--12-x-x-12-x-x-12-x-x-12-x-x-13-13-13-13-| 
------------------------------------------| 
--9--x-x-9--x-x-9--x-x-9--x-x-10-10-10-10-| 
------------------------------------------| 
------------------------------------------| 
------------------------------------------| 



--12-x-x-12-x-x-12-x-x-12-x-x-12-12-x-x-| 
----------------------------------------| 
--9--x-x-9--x-x-9--x-x-9--x-x-9--9--x-x-| 
----------------------------------------| 
----------------------------------------| 
----------------------------------------| 



--12-x-x-12-x-x-12-x-x-12-x-x-13-13-13-13-| 
------------------------------------------| 
--9--x-x-9--x-x-9--x-x-9--x-x-10-10-10-10-| 
------------------------------------------| 
------------------------------------------| 
------------------------------------------| 



--13-13-x-x-13-13-x-x-13-x-x-13-x-x-13-13-| 
------------------------------------------| 
--10-10-x-x-10-10-x-x-10-x-x-10-x-x-10-10-| 
------------------------------------------| 
------------------------------------------| 
------------------------------------------| 



--13-13-x-x-13-13-x-x-13-x-x-13-x-x-13-13-|----------------------------| 
------------------------------------------|----------------------------| 
--10-10-x-x-10-10-x-x-10-x-x-10-x-x-10-10-|-------9---12---9-----------| 
------------------------------------------|--11----------------11--12--| 
------------------------------------------|----------------------------| 
------------------------------------------|----------------------------| 



--------------------|-----------------------------|----------------------| 
--------------------|------------10---------------|-------10-------------| 
--9---12---10---9---|-------10--------10-------9--|--10--------12---10---| 
--------------------|--12------------------12-----|----------------------| 
--------------------|-----------------------------|----------------------| 
--------------------|-----------------------------|----------------------| 



----------------------------|----------------------| 
-----------11---------------|-------11---10--------| 
--9---12--------12---9--10--|--12-------------12---| 
----------------------------|----------------------| 
----------------------------|----------------------| 
----------------------------|----------------------|


----------10---------------|-------10------------|-------------------------| 
-----10--------10----------|--10--------13---11--|-------------------------| 
10------------------10--12-|---------------------|--9---7---9---10---9--7--| 
---------------------------|---------------------|-------------------------| 
---------------------------|---------------------|-------------------------| 
---------------------------|---------------------|-------------------------| 



--------------------|------------------------------|--10------------------| 
--------------------|-----------------10-----------|-------10-------------| 
-------7---9---10---|--12---10---12--------12--10--|------------12---10---| 
--11----------------|------------------------------|----------------------| 
--------------------|------------------------------|----------------------| 
--------------------|------------------------------|----------------------| 



--------------------------|--------------------|-------------------| 
-------------------8--10--|--11---10---8-------|--8------------8---| 
--9---7---9---10----------|----------------9---|------10---9-------| 
--------------------------|--------------------|-------------------| 
--------------------------|--------------------|-------------------| 
--------------------------|--------------------|-------------------| 



--------------------|-------------------| 
--------------------|-------------------| 
--10---9---7---10---|--9/---------------| 
--------------------|-------------------| 
--------------------|-------------------| 
--------------------|-------------------| 



----------------------------------------------| 
--14-11-10------------------------------------| 
-----------12-10-9----------------------------| 
-------------------12-11----------------------| 
-------------------------13-12-10-------------| 
----------------------------------13-12-10-9--| 



------------------------------------|--------------------------------------| 
------------------------------------|--------------------------------------|
-------5-4------3-2-----------------|---------5-4------3-2-----------------| 
0--7---------5--------2--5--3-----2-|--0--7---------5--------2--5--3-----2-| 
-------------------------------4----|---------------------------------4----| 
------------------------------------|--------------------------------------| 



------------------------------------|--------------------------------------| 
------------------------------------|--------------------------------------| 
-------5-4------3-2-----------------|---------5-4------3-2-----------------| 
0--7---------5--------2--5--3-----2-|--0--7---------5--------2--5--3-----2-| 
-------------------------------4----|---------------------------------4----| 
------------------------------------|--------------------------------------| 



-----------||---3---3---3----3--3--3--|--5---5---5----5--5--5--| 
-----------||---3---3---3----3--3--3--|--5---5---5----5--5--5--| 
-----------||*--3---3---3----3--3--3--|--6---6---6----6--6--6--| 
--0--------||*--5---5---5----5--5--5--|--7---7---7----7--7--7--| 
-----------||---5---5---5----5--5--5--|--7---7---7----7--7--7--| 
-----------||---3---3---3----3--3--3--|--5---5---5----5--5--5--| 



--5---5---5----5--5--5--|--6---6---6----6--6--6--|------------------------| 
--6---6---6----6--6--6--|--6---6---6----6--6--6--|--8---8---8----8--8--8--| 
--5---5---5----5--5--5--|--7---7---7----7--7--7--|--7---7---7----7--7--7--| 
--7---7---7----7--7--7--|--8---8---8----8--8--8--|--6---6---6----6--6--6--| 
--5---5---5----5--5--5--|--8---8---8----8--8--8--|--7---7---7----7--7--7--| 
------------------------|--6---6---6----6--6--6--|--0---0---0----0--0--0--| 



5---5---5----5--5--5--|--5---5---5----5--5--5--|--5---5---5----5--5--5---|| 
5---5---5----5--5--5--|--6---6---6----6--6--6--|--6---6---6----6--6--6---|| 
6---6---6----6--6--6--|--5---5---5----5--5--5--|--5---5---5----5--5--5--*|| 
7---7---7----7--7--7--|--7---7---7----7--7--7--|--7---7---7----7--7--7--*|| 
7---7---7----7--7--7--|--5---5---5----5--5--5--|--5---5---5----5--5--5---|| 
5---5---5----5--5--5--|------------------------|-------------------------|| 



--3---3---5----5--5--5--|--5---5---6----6--6--6--|----------5----5--5--5--| 
--3---3---5----5--5--5--|--6---6---6----6--6--6--|--8---8---5----5--5--5--| 
--3---3---6----6--6--6--|--7---7---7----7--7--7--|--7---7---6----6--6--6--| 
--5---5---7----7--7--7--|--7---7---8----8--8--8--|--6---6---7----7--7--7--| 
--5---5---7----7--7--7--|--5---5---8----8--8--8--|--7---7---7----7--7--7--| 
--3---3---5----5--5--5--|----------6----6--6--6--|--0---0---5----5--5--5--| 



--------------------------------------------|--3---3---5----5--5--5--| 
--------------------------------------------|--3---3---5----5--5--5--| 
--7-7-7/9-9-9/10-10-10/12-12/14-14-14-14-14-|--3---3---6----6--6--6--| 
--------------------------------------------|--5---5---7----7--7--7--| 
--5-5-5/7-7-7/8--8--8/-10-10/12-12-12-12-12-|--5---5---7----7--7--7--| 
--------------------------------------------|--3---3---5----5--5--5--| 



-5---5---5----5--5--5--|--6---6-----------------|--6-6-x-6-x-x-6--5--------| 
-6---6---6----6--6--6--|--6---6---8----8--8--8--|--6-6-x-6-x-x-6--5--------| 
-7---7---7----7--7--7--|--7---7---7----7--7--7--|--7-7-x-7-x-x-7--6--------| 
-7---7---0----0--0--0--|--8---8---6----6--6--6--|--8-8-x-8-x-x-8--7--------| 
-5---5-----------------|--8---8---7----7--7--7--|--8-8-x-8-x-x-8--7--------| 
---------7----7--7--7--|--6---6---0----0--0--0--|--6-6-x-6-x-x-6--5--------| 



------------------------------------|--------------------------------------| 
------------------------------------|--------------------------------------| 
-------5-4------3-2-----------------|---------5-4------3-2-----------------| 
0--7---------5--------2--5--3-----2-|--0--7---------5--------2--5--3-----2-| 
-------------------------------4----|---------------------------------4----| 
------------------------------------|--------------------------------------| 



------------------------------------|--------------------------------------| 
------------------------------------|--------------------------------------| 
-------5-4------3-2-----------------|---------5-4------3-2-----------------| 
0--7---------5--------2--5--3-----2-|--0--7---------5--------2--5--3-----2-| 
-------------------------------4----|---------------------------------4----| 
------------------------------------|--------------------------------------| 



------------------------------|------------|-------------------------------| 
------------------------------|------------|-------------------------------| 
-6--7---6--7---6--7---6--7--6-|--7-9-7-6---|--6--7---6--7---6--7---6--7--6-| 
-7--8---7--8---7--8---7--8----|----------8-|--7--8---7--8---7--8---7--8----| 
------------------------------|------------|-------------------------------| 
------------------------------|------------|-------------------------------| 



--------------------|-------------------------------|------------| 
------6-------------|-------------------------------|------------| 
--7-9---9-7-6-7-6---|--6--7---6--7---6--7---6--7--6-|--7-9-7-6---| 
------------------8-|--7--8---7--8---7--8---7--8----|----------8-| 
--------------------|-------------------------------|------------| 
--------------------|-------------------------------|------------| 



-------------------------------|-------------------------| 
-------------------------------|------6------------------| 
--6--7---6--7---6--7---6--7--6-|--7-9---9-7-6-7-6--------| 
--7--8---7--8---7--8---7--8----|------------------8-7----| 
-------------------------------|-----------------------4-| 
-------------------------------|-------------------------| 



-------------------------|-----------------------------|| 
-------------------------|-----------------------------|| 
-------------------------|-----------------------------|| 
----2-3-2----------------|----2-3-2--------------------|| 
--5-------5-4-5-4-1-0--4-|--5-------5-4-5-4-1-0--5/----|| 
-------------------------|-----------------------------||
Добавлено: 27.06.2012
Другие материалы по этой песне:
  • Аккорды и текст

Страница создана 27.06.2012
http://primanota.ru/john-petrucci/furia-taurina-chords.htm
Привет, Гость.
Предлагаем пройти революционный курс по гитаре.
Подарок от PrimaNota.Ru, забирай!